E-Chords
Man Overboard

Somethings Weird(Tabs)

Man Overboard

roll up this ad to continue

Key: Eb
First off just like every other Man Overboard song, it's played a Half Step Down (Eb Ab  
Db Gb Bb eb) and that I don't really have that many leads but I thought Ultimate Guitar  
needed at least 1 Something?s Weird tab so here you go 

Intro: 

G1: 
|-----------------------------------------------| 
|-----------------------------------------------| 
|-10-10101010-10-10-10--------------------------| 
|-10-10101010-10-10-10-10-10101010-10-10-10--8*-| 
|-8--8-8-8-8--8--8--8--10-10101010-10-10-10--8*-| 
|----------------------8--8-8-8-8--8--8--8---6*-| 

G2: 
|-----------------------------------------------| 
|-----------------------------------------------| 
|-10-10101010-10-10-10-10-10101010-10-10-10-10*-| 
|-10-10101010-10-10-10-10-10101010-10-10-10-10*-| 
|-8--8-8-8-8--8--8--8--8--8-8-8-8--8--8--8--8*--| 

verse 1: 

G1: 
|-------------------------------------------| 
|-------------------------------------------| 
|---------------------7-7777777-3-333-5-555-| 
|-3-3333333-3-3333333-7-7777777-3-333-5-555-|  x2 
|-3-3333333-3-3333333-5-5555555-1-111-3-333-| 
|-1-1111111-1-1111111-----------------------| 

G2: 
|-----------------------------------------------------------| 
|-----------------------------------------------------------| 
|-10-10101010101010-10-10101010101010-7-7777777-3-333-5-555-| 
|-10-10101010101010-10-10101010101010-7-7777777-3-333-5-555-|  x2 
|-8--8-8-8-8-8-8-8--8--8-8-8-8-8-8-8--5-5555555-1-111-3-333-| 
|-----------------------------------------------------------| 

Pre-Chorus 

|----------| 
|----------| 
|-5-57-73*-| 
|-5-57-73*-|  x4 
|-3-35-51*-| 

verse 2: 

G1: 
|---------------| 
|---------------| 
|-----7*--3*-5*-| 
|-3*--7*--3*-5*-|  x2 
|-3*--5*--1*-3*-| 
|-1*------------| 

G2: 
|-----------------------------------------------------------| 
|-----------------------------------------------------------| 
|-10-10101010101010-10-10101010101010-7-7777777-3-333-5-555-| 
|-10-10101010101010-10-10101010101010-7-7777777-3-333-5-555-|  x2 
|-8--8-8-8-8-8-8-8--8--8-8-8-8-8-8-8--5-5555555-1-111-3-333-| 
|-----------------------------------------------------------| 

Pre-Chorus 

|----------| 
|----------| 
|-5-57-73*-| 
|-5-57-73*-|  x4 
|-3-35-51*-| 

Chorus: 

|------------------------------------| 
|------------------------------------| 
|------------------------------------| 
|-33333333-55555555-8888888888888888-| x2 
|-33333333-55555555-8888888888888888-| 
|-11111111-33333333-6666666666666666-| 

|-------------------------------------------------------------| 
|-------------------------------------------------------------| 
|-1010101010101010--------------------------------------------| 
|-1010101010101010-1010101010101010-88888888-1010101010101010-| 
|-8-8-8-8-8-8-8-8--1010101010101010-88888888-1010101010101010-| 
|------------------8-8-8-8-8-8-8-8--66666666-8-8-8-8-8-8-8-8--| 

|------------------------------------| 
|------------------------------------| 
|------------------------------------| 
|-33333333-55555555-8888888888888888-| 
|-33333333-55555555-8888888888888888-| 
|-11111111-33333333-6666666666666666-| 

verse 3: For the first half of the verse scratch a octave around the 15/16th fret 

|-----------------|---------| 
|-----------------|---------| 
|-------x4--------|---------| 
|-----------------|---------| 
|-88-788-788-7810-|-8*--7*--| 
|-----------------|---------| 

And then? 

|----------------------------------| 
|----------------------------------| 
|-555555575555533322-----222-------| 
|-------------------33333---333555-|  x2 
|----------------------------------| 
|----------------------------------| 

Outro: The chords are just the Chorus 

|-----------------------------------| 
|-66666666-55555555-3333333333333333| 
|-----------------------------------| x3 
|-----------------------------------| 
|-----------------------------------| 
|-----------------------------------| 

And then? 

|---------------------| 
|---------------------| 
|---------------------| 
|---------------------|  x4 
|-88-788-788-78101010-| 
|---------------------| 
share this page

See Also: