E-Chords
Man Overboard

Rare(Tabs)

Man Overboard

roll up this ad to continue

 
                          GUITAR 1 - RHYTHM 
 

Intro/Verse 1: 
e|--------------------------------------| 
B|--------------------------------------| 
G|--------------------6666666666666666--| 
D|--88888888-44444444-6666666666666666--| 
A|--88888888-44444444-4444444444444444--| 
D|--88888888-44444444-------------------| 
     
e|--------------------------------------| 
B|--------------------------------------| 
G|--------------------------------------| 
D|--44444444-66666666-8888888888888888--| 
A|--44444444-66666666-8888888888888888--| X4 
D|--44444444-66666666-8888888888888888--| 
    ******** ******** **************** 

Pre-Chorus: 
e|--------------------------| 
B|--------------------------| 
G|--666666/8/111111111111x--| < Not the exact number of strums, 
D|--666666/8/111111111111x--|  but listen and you'll get the idea 
A|--444444/6/9-9-9-9-9-9-x--| 
D|--------------------------| 


Chorus: 
e|--x16-------------------|----| 
B|--------x16---x16---x16-|----| 
G|---6--------------------|-3~-| 
D|---6-----4-----6-----4--|-3~-| 
A|---4-----4-----6-----4--|-1~-| 
D|---------4-----6-----4--|----| 

Verse 2: 
e|--------------------------------------| 
B|--------------------------------------| 
G|--------------------6666666666666666--| 
D|--88888888-44444444-6666666666666666--| X2 
A|--88888888-44444444-4444444444444444--| 
D|--88888888-44444444-------------------| 

e|--------------------------------------| 
B|--------------------------------------| 
G|--------------------------------------| 
D|--44444444-66666666-8888888888888888--| 
A|--44444444-66666666-8888888888888888--| X4 
D|--44444444-66666666-8888888888888888--| 
    ******** ******** **************** 

Pre-Chorus: 
e|--------------------------| 
B|--------------------------| 
G|--666666/8/111111111111x--| 
D|--666666/8/111111111111x--| 
A|--444444/6/9-9-9-9-9-9-x--| 
D|--------------------------| 


Chorus 2: 
e|--x16-------------------|----| 
B|--------x16---x16---x16-|----| 
G|---6--------------------|-6~-| 
D|---6-----4-----6-----4--|-6~-| 
A|---4-----4-----6-----4--|-4~-| 
D|---------4-----6-----4--|----| 

Breakdown: 
e|--x16-------------------|--x16-------------------| 
B|--------x16---x16---x16-|--------x16---x16---x32-| 
G|---6--------------------|---6--------------------| 
D|---6-----4-----6-----4--|---6-----4-----8-----4--| 
A|---4-----4-----6-----4--|---4-----4-----8-----4--| 
D|---------4-----6-----4--|---------4-----8-----4--| 
     *     *     *     *      *     * 

Chorus 3: 
e|--x16-------------|--x16-------------|-----------------------------------| 
B|------x16-x16-x16-|------x16-x16-x16-|--So worth all of this torture..---| 
G|---6--------------|---6--------------|-6~~---------------------------6~--| 
D|---6---4---6---4--|---6---4---8---4--|-6~~---------------------------6~--| 
A|---4---4---6---4--|---4---4---8---4--|-4~~---------------------------4~--| 
D|-------4---6---4--|-------4---8---4--|-----------------------------------| 


 
                           GUITAR 2 - LEAD 
 

Intro: 
e|-----------------------------| 
B|--14-14-14-14-14-14-14-14----| 
G|---13-13-13-13-13-13-13-13---| 
D|-----------------------------| 
A|-----------------------------| 
D|-----------------------------| 

Verse 1: 
e|-------------------------------| 
B|-------------------------------| 
G|-----10------10------10-10-----| 
D|---11------11------11-----11---| X2 
A|--9------11------13---------13-| 
D|-------------------------------| 

e|-x8--x8--x16-| 
B|-------------| 
G|--3---5---6--| 
D|--x---x---x--| X2 
A|--1---3---4--| 
D|-------------| 

Pre-Chorus: 
e|---------------------------------------------------| 
B|--14-14-14-14-14-14-14-14-16-14-14-14-14-16-16-16--| 
G|---13-13-13-13-13-13-13-------13-13-13-13-13-13----| 
D|---------------------------------------------------| 
A|---------------------------------------------------| 
D|---------------------------------------------------| 

Chorus 1: 
e|--14-14-14-14-13-13-13-13-13-13-------------------|\  ------| 
B|--------------------------------------------------| \ ------| 
G|-------------------------------13-13-13-13-13-13--| X4-H15~-| 
D|--------------------------------------------------|  |------| 
A|--------------------------------------------------| / ------| 
D|--------------------------------------------------|/  ------| 

Verse 2: 
e|---------------------------------------------------| 
B|--14-14-14-14-14-14-14-14-14-14-14-14-14-14-14-14--| 
G|---13-13-13-13-13-13-13-13-13-13-13-13-13-13-13----| 
D|---------------------------------------------------| 
A|---------------------------------------------------| 
D|---------------------------------------------------| 

e|-------------------------------| 
B|-------------------------------| 
G|-----10------10------10-10-----| 
D|---11------11------11-----11---| X2 
A|--9------11------13---------13-| 
D|-------------------------------| 

e|-x8--x8--x16-| 
B|-------------| 
G|--3---5---6--| 
D|--x---x---x--| X2 
A|--1---3---4--| 
D|-------------| 

Pre-Chorus: 
e|---------------------------------------------------| 
B|--14-14-14-14-14-14-14-14-16-14-14-14-14-14-14-14--| 
G|---13-13-13-13-13-13-13-------13-13-13-13-13-13----| 
D|---------------------------------------------------| 
A|---------------------------------------------------| 
D|---------------------------------------------------| 

Chorus 2: 
e|--14-14-14-14-13-13-13-13-13-13-------------------|\  ------| 
B|--------------------------------------------------| \ -14~--| 
G|-------------------------------13-13-13-13-13-13--| X4------| 
D|--------------------------------------------------|  |------| 
A|--------------------------------------------------| / ------| 
D|--------------------------------------------------|/  ------| 

Breakdown: 
e|------------13~-------------------| 
B|--(14)~-------------------14~-----| 
G|-------------------13~------------| 
D|----------------------------------| 
A|----------------------------------| 
D|----------------------------------| 

e|--13--------14--16---13-------14-13------| 
B|----14--------14-------14----------14----| 
G|------13-----------------13--------------| 
D|-----------------------------------------| 
A|-----------------------------------------| 
D|-----------------------------------------| 

e|--13---------------------------------------------------------------------| 
B|----14-14-14-14-14-14-14-14-14-14-14-14-14-14-14-14-14-------------------| 
G|-----13-13-13-13-13-13-13-13-13-13-13-13-13-13-13-13-13------------------| 
D|-------------------------------------------------------1010101010101010--| 
A|-------------------------------------------------------------------------| 
D|-------------------------------------------------------------------------| 


Chorus 3: 
e|--13-----14-----16-------14p13--14p13--14p13h14p13--14p13--14p13--| 
B|--14-----14-----14------------14~----14~----------14~----14~------| 
G|------------------------------------------------------------------| 
D|--x16----x16----x16-----------------------------------------------| 
A|------------------------------------------------------------------| 
D|------------------------------------------------------------------| 

e|-----------------------|\   -------| 
B|-----------------------| \  -------| 
G|--6666-5555-6666-8888--|  | --6~~--|   I can't hear the solo at the end 
D|--xxxx-xxxx-xxxx-xxxx--| X4 --x----| well enough to tab it, so end I here 
A|--4444-3333-4444-6666--| /  --4~~--| 
D|-----------------------|/   -------| 
share this page

See Also: