E-Chords
Man Overboard

Picture Perfect(Tabs)

Man Overboard

roll up this ad to continue

Key: B
Intro 
e||--------------------------| 
B||--------------------------| 
G||--------------------------| 
D||-4-4-3-4-------6-6--6-6-4-| X2 
A||-2-2-2-2-2/6-9---4--4-4-4-| 
D||--------------------------| 

Verse 1 
e||---------------------------------------| 
B||---------------------------------------| 
G||---------------------------------------| 
D||-4-4-4-4-3-4-4-4-4---4-6-6-6-6-6-6-6-4-| 
A||-2-2-2-2-2-2-2-2-2-6-----4-4-4-4-4-4-4-| 
D||---------------------------------------| 


Pre Chorus (cause the best friends that a boy could have werent the best enough) 
e||----------------------------------------------------------------------------------------| 
B||----------------------------------------------------------------------------------------| 
G||-11-11-11-11-11-11-11-11-10-10-10-6-6-6-15-15-15-15-15-15-15-15-13-13-13-13-13-13-13-13-| 
D||--x--x--x--x--x--x--x--x--x--x--x-x-x-x--x--x--x--x--x--x--x--x--x--x--x--x--x--x--x--x-| X2 
A||--9--9--9--9--9--9--9--9--8--8--8-4-4-4-13-13-13-13-13-13-13-13-11-11-11-11-11-11-11-11-| 
D||----------------------------------------------------------------------------------------| 

Chorus (thats when they fell in love) 
e||------------------------------------------------------------------------| 
B||------------------------------------------------------------------------| 
G||-18--18--18--18--10--10--11--11--18--18--18--18-10-10-10-10-13-13-13-13-| 
D||--x---x---x---x---x---x---x---x---x---x---x---x--x--x--x--x--x--x--x--x-| 
A||-16--16--16--16---8---8---9---9--16--16--16--16--8--8--8--8-11-11-11-11-| 
D||------------------------------------------------------------------------| 

End of Chorus (her picture perfect world coudnt keep her happy) 
e||----------------------------------------------------| 
B||----------------------------------------------------| 
G||-10-10-10-10-10-10-10-10-11-11-11-11-11-11-11-11-13-| 
D||--x--x--x--x--x--x--x--x--x--x--x--x--x--x--x--x--x-| 
A||--8--8--8--8--8--8--8--8--9--9--9--9--9--9--9--9-11-| 
D||----------------------------------------------------| 

after the chrous 
e||---------------------------------------| 
B||---------------------------------------| 
G||---------------------------------------| 
D||-4-4-4-4-3-4-4-4-4---4-6-6-6-6-6-6-6-4-| 
A||-2-2-2-2-2-2-2-2-2-6-----4-4-4-4-4-4-4-| 
D||---------------------------------------| 


Verse 2 pt1 
e||-9---9---9---9---9---9---9---9---9---9---9---9---9---9---9---9---6---6---7---7---| 
B||---7---7---7---7---7---7---7---7---7---7---7---7---7---7---7---7---7---7---7---7-| 
G||---------------------------------------------------------------------------------| X2 
D||---------------------------------------------------------------------------------| 
A||---------------------------------------------------------------------------------| 
D||---------------------------------------------------------------------------------| 


Verse pt2 (he said i miss you so much) 
e|-------------------------14-14-14-13-13-13-13-13-------------------------14-14-16-13-13-13-13-13-| 
B|-14-14-14-14-14-14-14-14-------------------------14-14-14-14-14-14-14-14-------------------------| 
G|-------------------------------------------------------------------------------------------------| 
D|-------------------------------------------------------------------------------------------------|X2 
A|-------------------------------------------------------------------------------------------------| 
D|-------------------------------------------------------------------------------------------------| 


Pre Chorus (cause the best friends that a boy could have werent the best enough) 
e||----------------------------------------------------------------------------------------| 
B||----------------------------------------------------------------------------------------| 
G||-11-11-11-11-11-11-11-11-10-10-10-6-6-6-15-15-15-15-15-15-15-15-13-13-13-13-13-13-13-13-| 
D||--x--x--x--x--x--x--x--x--x--x--x-x-x-x--x--x--x--x--x--x--x--x--x--x--x--x--x--x--x--x-| X2 
A||--9--9--9--9--9--9--9--9--8--8--8-4-4-4-13-13-13-13-13-13-13-13-11-11-11-11-11-11-11-11-| 
D||----------------------------------------------------------------------------------------| 

Chorus 2 (thats when they fell in love) 
e||------------------------------------------------------------------------| 
B||------------------------------------------------------------------------| 
G||-18--18--18--18--10--10--11--11--18--18--18--18-10-10-10-10-13-13-13-13-| 
D||--x---x---x---x---x---x---x---x---x---x---x---x--x--x--x--x--x--x--x--x-| 
A||-16--16--16--16---8---8---9---9--16--16--16--16--8--8--8--8-11-11-11-11-| 
D||------------------------------------------------------------------------| 

End of Chorus 2 (her picture perfect world coudnt keep her happy) 
e||-------------------------------------------------------------------------| 
B||-------------------------------------------------------------------------| 
G||-10-10-10-10-10-10-10-10-11-11-11-11-11-11-11-11-13-13-13-13-13-13-13-13-| 
D||--x--x--x--x--x--x--x--x--x--x--x--x--x--x--x--x--x--x--x--x--x--x--x--x-| 
A||--8--8--8--8--8--8--8--8--9--9--9--9--9--9--9--9-11-11-11-11-11-11-11-11-| 
D||-------------------------------------------------------------------------| 


Solo 
e||----------------------------------------------------------------------------| 
B||---6---7---9---6h7---6---7---9------9b(11)9---6h7----6---7---9------9b(11)9-| 
G||-6---6---6---6-----6---6---6---6--6---------6------6---6---6---6--6---------| 
D||----------------------------------------------------------------------------| 
A||----------------------------------------------------------------------------| 
D||----------------------------------------------------------------------------| 

9-6-------7-6-------------7-6-------9-----9---------9-----9---| 
----9\7-7-----7-9b(11)9\7-----7-6-7---6-7---6-7-6-7---6-7---0-| 
--------------------------------------------------------------| 
--------------------------------------------------------------| 
--------------------------------------------------------------| 
--------------------------------------------------------------| 


Pre Chorus (cause the best friends that a boy could have werent the best enough) 
e||----------------------------------------------------------------------------------------| 
B||----------------------------------------------------------------------------------------| 
G||-11-11-11-11-11-11-11-11-10-10-10-6-6-6-15-15-15-15-15-15-15-15-13-13-13-13-13-13-13-13-| 
D||--x--x--x--x--x--x--x--x--x--x--x-x-x-x--x--x--x--x--x--x--x--x--x--x--x--x--x--x--x--x-| X2 
A||--9--9--9--9--9--9--9--9--8--8--8-4-4-4-13-13-13-13-13-13-13-13-11-11-11-11-11-11-11-11-| 
D||----------------------------------------------------------------------------------------| 

Chorus 2 (thats when they fell in love) 
e||------------------------------------------------------------------------| 
B||------------------------------------------------------------------------| 
G||-18--18--18--18--10--10--11--11--18--18--18--18-10-10-10-10-13-13-13-13-| 
D||--x---x---x---x---x---x---x---x---x---x---x---x--x--x--x--x--x--x--x--x-| 
A||-16--16--16--16---8---8---9---9--16--16--16--16--8--8--8--8-11-11-11-11-| 
D||------------------------------------------------------------------------| 

End of Chorus 2 (her picture perfect world coudnt keep her happy) 
e||-------------------------------------------------------------------------| 
B||-------------------------------------------------------------------------| 
G||-10-10-10-10-10-10-10-10-11-11-11-11-11-11-11-11-13----------------------| 
D||--x--x--x--x--x--x--x--x--x--x--x--x--x--x--x--x--x-------------------4~-| 
A||--8--8--8--8--8--8--8--8--9--9--9--9--9--9--9--9-11-------------------2~-| 
D||-------------------------------------------------------------------------| 
share this page

See Also: