E-Chords
Man Overboard

Different People(Tabs)

Man Overboard

roll up this ad to continue

Verse: 
... you can say one... 
E----------------------------------------------------------| 
B----------------------------------------------------------| 
G---------------0-------------0-------------0--------------|x5 
D------------0-------------0-------------0-----------------| 
A--------10------------14------------12--------------------| 
E-----8------------12------------10------------------------| 

Chorus:  
I understand... 
E----------------------------------------------------------| 
B----------------------------------------------------------| 
G----------------------------------------------------------|x2 
D----------------------------------------------------------| 
A----10-10-10-10-10-10-14-14-14-14-14-14-12-12-12-12-12-12-| 
E----8--8--8--8--8--8--12-12-12-12-12-12-10-10-10-10-10-10-| 

Bridge: 
But were different... 
E----------------------------------------------------------| 
B----------------------------------------------------------| 
G---------------0-------------0-------------0--------------| 
D------------0-------------0-------------0-----------------| 
A--------10------------14------------12--------------------| 
E-----8------------12------------10------------------------| 

Verse: 
You're tearing down... 
E----------------------------------------------------------| 
B----------------------------------------------------------| 
G---------------0-------------0-------------0--------------|x5 
D------------0-------------0-------------0-----------------| 
A--------10------------14------------12--------------------| 
E-----8------------12------------10------------------------| 

Chorus:  
Your Jaws of steel... 
E----------------------------------------------------------| 
B----------------------------------------------------------| 
G----------------------------------------------------------|x2 
D----------------------------------------------------------| 
A----10-10-10-10-10-10-14-14-14-14-14-14-12-12-12-12-12-12-| 
E----8--8--8--8--8--8--12-12-12-12-12-12-10-10-10-10-10-10-| 

outro: 
I didn't realize it... 
E----------------------------------------------------------| 
B----------------------------------------------------------| 
G---------------0-------------0-------------0--------------|x5 
D------------0-------------0-------------0-----------------| 
A--------10------------14------------12--------------------| 
E-----8------------12------------10------------------------| 
share this page

See Also: