E-Chords
Man Overboard

Darkness, Everybody(Tabs)

Man Overboard

roll up this ad to continue

Key: Eb
VERSE ONE, PART ONE (0:00) 

   (x2) 
eb|--------------------------------------------------------------------------| 
Bb|--------------------------------------------------------------------------| 
Gb|-------------------7-7-7-7---------------------------7-7-7-7--------------| 
Db|--7-7-7-7----------7-7-7-7----------7-7-7-7----------7-7-7-7--------------| 
Ab|--7-7-7-7----------5-5-5-5----------7-7-7-7----------5-5-5-5--------------| 
Eb|--5-5-5-5---------------------------5-5-5-5-------------------------------| 
  1  trying to         keeps         I can't shake     -ness has 
  2  fast enough      what has       -ning strikes     that I touch (2, 3, 4!) 

VERSE ONE, PART TWO (0:15) 
    
   (x1)    
eb|--------------------------------------------------------------------------| 
Bb|--------------------------------------------------------------------------| 
Gb|-------------------7-7-7-7-7-7-7-7-------------------7-7-7-7-7-7-7-7------| 
Db|--7-7-7-7-7-7-7-7--7-7-7-7-7-7-7-7--7-7-7-7-7-7-7-7--7-7-7-7-7-7-7-7------| 
Ab|--7-7-7-7-7-7-7-7--5-5-5-5-5-5-5-5--7-7-7-7-7-7-7-7--5-5-5-5-5-5-5-5------| 
Eb|--5-5-5-5-5-5-5-5-------------------5-5-5-5-5-5-5-5-----------------------| 
      This is how     to be on my own    Sadness has cut me down to the bone 

   (x1) 
eb|--------------------------------------------------------------------------| 
Bb|--------------------------------------------------------------------------| 
Gb|-------------------7-7-7-7-7-7-7-7--4-4-----4-4------4-4-4-4-7------------| 
Db|--7-7-7-7-7-7-7-7--7-7-7-7-7-7-7-7--4-4-----4-4------4-4-4-4-7------------| 
Ab|--7-7-7-7-7-7-7-7--5-5-5-5-5-5-5-5--2-2-----2-2------2-2-2-2-5------------| 
Eb|--5-5-5-5-5-5-5-5---------------------------------------------------------| 
      And it's so      don't think    home tonight 

CHORUS ONE (0:30): 

   (x2) 
eb|--------------------------------------------------------------------------| 
Bb|--------------------------------------------------------------------------| 
Gb|--------------------7-7-7-7-7-7-7-7---4-4-4-4-4-4-4-4---7-7-7-7-7-7-7-7---| 
Db|--7-7-7-7-7-7-7-7---7-7-7-7-7-7-7-7---4-4-4-4-4-4-4-4---7-7-7-7-7-7-7-7---| 
Ab|--7-7-7-7-7-7-7-7---5-5-5-5-5-5-5-5---2-2-2-2-2-2-2-2---5-5-5-5-5-5-5-5---| 
Eb|--5-5-5-5-5-5-5-5---------------------------------------------------------| 
  1  lights in your    could leave on      me tonight             There's not 
  2  fights I could    justify how I       feel tonight 

VERSE TWO, PART ONE (0:45) 

   (x1) 
eb|--------------------------------------------------------------------------| 
Bb|--------------------------------------------------------------------------| 
Gb|-------------------7-7-7-7---------------------------7-7-7-7--------------| 
Db|--7-7-7-7----------7-7-7-7----------7-7-7-7----------7-7-7-7--------------| 
Ab|--7-7-7-7----------5-5-5-5----------7-7-7-7----------5-5-5-5--------------| 
Eb|--5-5-5-5---------------------------5-5-5-5-------------------------------| 
     calling          what they       the gossip        every word 
  
   (x1) 
eb|--------------------------------------------------------------------------| 
Bb|--------------------------------------------------------------------------| 
Gb|-------------------7-7-7-7---------------------------------7--------------| 
Db|--7-7-7-7----------7-7-7-7----------7-7-7-7----------------7--------------| 
Ab|--7-7-7-7----------5-5-5-5----------7-7-7-7----------5-5-5-5--------------| 
Eb|--5-5-5-5---------------------------5-5-5-5-------------------------------| 
                                                        P.M--| 
     I'm not mad      actually         believe        loves me so 


VERSE TWO, PART TWO (0:59)    

   (x1)    
eb|--------------------------------------------------------------------------| 
Bb|--------------------------------------------------------------------------| 
Gb|-------------------7-7-7-7-7-7-7-7-------------------7-7-7-7-7-7-7-7------| 
Db|--7-7-7-7-7-7-7-7--7-7-7-7-7-7-7-7--7-7-7-7-7-7-7-7--7-7-7-7-7-7-7-7------| 
Ab|--7-7-7-7-7-7-7-7--5-5-5-5-5-5-5-5--7-7-7-7-7-7-7-7--5-5-5-5-5-5-5-5------| 
Eb|--5-5-5-5-5-5-5-5-------------------5-5-5-5-5-5-5-5-----------------------| 
      Failing every    late for the     Alone to         do your makeup 

   (x1) 
eb|--------------------------------------------------------------------------| 
Bb|--------------------------------------------------------------------------| 
Gb|-------------------7-7-7-7-7-7-7-7--4-4--x-x-4-4--x-x-4-4-------7---------| 
Db|--7-7-7-7-7-7-7-7--7-7-7-7-7-7-7-7--4-4--x-x-4-4--x-x-4-4-------7---------| 
Ab|--7-7-7-7-7-7-7-7--5-5-5-5-5-5-5-5--2-2--x-x-2-2--x-x-2-2-------5---------| 
Eb|--5-5-5-5-5-5-5-5---------------------------------------------------------| 
      know that I      alright before  over    now     tonight 

CHORUS TWO (1:14): 

   (x4) 
eb|--------------------------------------------------------------------------| 
Bb|--------------------------------------------------------------------------| 
Gb|--------------------7-7-7-7-7-7-7-7---4-4-4-4-4-4-4-4---7-7-7-7-7-7-7-7---| 
Db|--7-7-7-7-7-7-7-7---7-7-7-7-7-7-7-7---4-4-4-4-4-4-4-4---7-7-7-7-7-7-7-7---| 
Ab|--7-7-7-7-7-7-7-7---5-5-5-5-5-5-5-5---2-2-2-2-2-2-2-2---5-5-5-5-5-5-5-5---| 
Eb|--5-5-5-5-5-5-5-5---------------------------------------------------------| 
  1  lights in your    could leave on      me tonight             There's not 
  2  fights I could    justify how I       feel tonight 
  3  this would         I wonder           real tonight                And if 
  4  makes any          then push my       back up against  

POST-CHORUS (1:44) 

   (x1) 
eb|--------------------------------------------------------------------------| 
Bb| QUICK -------------------------------------------------------------------| 
Gb|--------------------------------------------------------------------------| 
Db|--7---------------7-----------7-6-----------------------------------------| 
Ab|--7---------------7-- PAUSE --7-6-----------------------------------------| 
Eb|--5-5-5-5-5-5-5-5-5-----------5-4-----------------------------------------| 
       P.M----------| 
  -night 

BRIDGE (1:48): 

   (x3) 
eb|--------------------------------------------------------------------------| 
Bb|--------------------------------------------------------------------------| 
Gb|-------------------7-7-7-7-7-7-7-7-------------------9-9-9-9-9-9-9-9------| 
Db|--4-4-4-4-4-4-4-4--7-7-7-7-7-7-7-7--7-7-7-7-7-7-7-7--9-9-9-9-9-9-9-9------| 
Ab|--4-4-4-4-4-4-4-4--5-5-5-5-5-5-5-5--7-7-7-7-7-7-7-7--7-7-7-7-7-7-7-7------| 
Eb|--2-2-2-2-2-2-2-2-------------------5-5-5-5-5-5-5-5-----------------------| 
  1     And I know     be the last      walk these       hang my head 
  2     And I know     be the last      walk these      wish I was dead 
  3     And I know     be the last      walk these        hang my head 

   (x1) 
eb|--------------------------------------------------------------------------| 
Bb|--------------------------------------------------------------------------| 
Gb|-------------------7-7-7-7-7-7-7-7-------------------9-9-x-x-9-9-x-x------| 
Db|--4-4-4-4-4-4-4-4--7-7-7-7-7-7-7-7--7-7-7-7-7-7-7-7--9-9-x-x-9-9-x-x------| 
Ab|--4-4-4-4-4-4-4-4--5-5-5-5-5-5-5-5--7-7-7-7-7-7-7-7--7-7-x-x-7-7-x-x------| 
Eb|--2-2-2-2-2-2-2-2-------------------5-5-5-5-5-5-5-5-----------------------| 
        And I know     be the last       be the last     be the last 


FINAL CHORUS, PART ONE (2:18) 

   (x2) 
eb|--------------------------------------------------------------------------| 
Bb|--------------------------------------------------------------------------| 
Gb|--------------------------------------------------------------------------| 
Db|--7-----------------------------------------------------------------------| 
Ab|--7----------------5-5-5-5-5-5-5-5--2-2-2-2-2-2-2-2--5-5-5-5-5-5-5-5------| 
Eb|--5-5-5-5-5-5-5-5---------------------------------------------------------| 
       P.M-------------------------------------------------------------|    
  1  lights in your    could leave on      me tonight             There's not 
  2  fights I could    justify how I     feel tonight 

FINAL CHORUS, PART TWO (2:33) 

  (x3) 
eb|--------------------------------------------------------------------------| 
Bb|--------------------------------------------------------------------------| 
Gb|--------------------7-7-7-7-7-7-7-7---4-4-4-4-4-4-4-4---7-7-7-7-7-7-7-7---| 
Db|--7-7-7-7-7-7-7-7---7-7-7-7-7-7-7-7---4-4-4-4-4-4-4-4---7-7-7-7-7-7-7-7---| 
Ab|--7-7-7-7-7-7-7-7---5-5-5-5-5-5-5-5---2-2-2-2-2-2-2-2---5-5-5-5-5-5-5-5---| 
Eb|--5-5-5-5-5-5-5-5---------------------------------------------------------| 
  1  this would         wonder what's     real tonight          And if this 
  2  makes any sense    then push my      back up against  wall,   if this 
  3  makes any sense    then push my      back up against   the wall 

END ON (2:55) 

   (x1) 
eb|-----| 
Bb|-----| 
Gb|-----| 
Db|--7--| 
Ab|--7--| 
Eb|--5--| 
share this page

See Also: