E-Chords
Mad Season

November Hotel(Tabs)

Mad Season

roll up this ad to continue

(intro) 
-------------- 
-------------- 
-9---12--7--12 
-9---12--7--12 
-7---10--5--10 
-------------- 

1:47 
------------------------------ 
------------------------------ 
------------------------------ 
-------9--7-9----------------- 
-------7--5-7----------------- 
------------------------------ 

2:22 

--------------------------------------------- 
--------------------------------------------- 
--------------------------------------------- 
--------------------------------------------- 
-2-2-2-2-2-2-2-2-2-2-2-2-2-2-2-2-2-2-2-2-2-2- 
-0-0-0-0-0-0-0-0-0-0-0-0-0-0-0-0-0-0-0-0-0-0- 
(play this rhy. until 2:53) 

4:51 

---------------------------- 
---------------------------- 
---------------------------- 
---------------------------- 
-2----2-4----4-5----5-4---4- 
-0----0-2----2-3----3-2---2- 
share this page

See Also: