E-Chords
Mad Season

Lifeless Dead(Tabs)

Mad Season

roll up this ad to continue

 
 opening riff/chorus: 
 
 
 e|-----------------------------------| 
 B|-----------------------------------| 
 G|-----------------------------------| 
 D|-----7--7--5-----------------------| 
 A|--------------6----0-3-3-4-5-0----| 
 E|-----------------------------------| 
 
 
 
verse: 
 
'Lifeless dead, that unclean bed.....' 
 
 e|-----------------------------| 
 B|-----------------------------| 
 G|-----------------------------| 
 D|------5-7-5-7-----5-7-5-7---|   
 A|-----------------------------|   
 E|-----------------------------| 
 
 
 
 play above (2x) then at the end of the second time add these 
two chords: 
 
 e|--------------- | 
 B|--------------- | 
 G|---10---9\-----| 
 D|---X----X------ | 
 A|---8----7\-----| 
 E|--------------- | 
 
 
 
play above a few times then play: 
 
'alone on dirty floor he slept....' 
 
 e|------------------------|-----------------------| 
 B|------------------------|-----------------------| 
 G|------------------------|--10--9---5--5--4-----| 
 D|---5-7-5-7---5-7-5-7---|--X---X---X--X--X------| 
 A|------------------------|--8---7---3--3--2--0--| 
 E|------------------------|-----------------------| 
 
 
_______________________________________________________ 
Contribuição: Thales Rafael Chaves de Lima([email protected]) 
share this page

See Also: