E-Chords
Mad Season

I Do'nt Know Anything(Tabs)

Mad Season

roll up this ad to continue

 
Intro/Verso 
 
e---------------------------------------------------------------------------- 
B--------------------------------------------------------------------------- 
G--------------------------------------------------------------------------- 
D--------2-------------------------------------------2--------------------- 
A--------2-------------------------------------------2--------------------- 
E--------0----(4)----0----(4)----0----2b2.5----0----(4)----0----(4) 
                                            
e---------------------------------------------------------------------------- 
B--------------------------------------------------------------------------- 
G--------------------------------------------------------------------------- 
D--------------------2-------------------------------------------2--------- 
A--------------------2-------------------------------------------2--------- 
E--0----2b2.5----0----(4)----0----(4)----0----2b2.5----0----(4)-- 
 
e--------------------------------------------------------------------------- 
B--------------------------------------------------------------------------- 
G--------------------------------------------------------------------------- 
D-------------(5)-------(5)----------------------------------------------- 
A------------------(5)----------------------------------------------------- 
E--0----(4)--------------------------------------------------------------- 
 
 
----------------------------------------------------------------------------- 
 
Refrão 
 
e-------------------------------------------------------------------------- 
B------------------------------------------------------------------------- 
G------------------------------------------------------------------------- 
D----2---------------------------------4/5\-------2---------------8---- 
A----2---------------------------------4/5\-------2---------------8---- 
E----0---------------------------------2/3\-------0---------------6---- 
     'Why we have to live in so much pain every day...  
 
e----------------------------------------------------------------------------- 
B----------------------------------------------------------------------------- 
G----------------------------------------------------------------------------- 
D---------5------------------------------------------------------------------- 
A---------5------------------------------------------------------------------ 
E---------7---------------------------------------------------------------- 
   'Oh yeah...' 
  
 
 
 
 
Solo  
 
 
 
e------------------------------------------------------------ 
B----------------------------------------------------------- 
G------------------------------------------------------------ 
D------------------------------------------------------------- 
A-----5------------------------------------------------------ 
E--------5b5.5----0--------------------------------------- 
 
 
e--------------------------------------------------------------------------- 
B-------------------------------------------------------------------------- 
G-------------------------------------------------------------------------- 
D--------2-------------------------------------------2-------------------- 
A--------2-------------------------------------------2--------------------- 
E--------0----(4)----0----(4)----0----2b2.5----0----(4)----0----(4) 
                                            
e---------------------------------------------------------------------------- 
B----------------------------------------------------------------------------- 
G--------------------------------------------------------------------------- 
D--------------------------------------------(5)-------(5)------------------ 
A-------------------------------------------------(5)------------------------ 
E--0----2b2.5----0----(4)----0----(4)---------------------------------- 
 
_______________________________________________________ 
Contribuição: Thales Rafael Chaves de Lima([email protected]) 
share this page

See Also: