E-Chords
Lotus Plaza

Strangers(Tabs)

Lotus Plaza

roll up this ad to continue

 

Intro (x2) and Verse (x4) 

E----2-------0---------2-----4---------0----------4--| 
B-------3-------3----------------5---------5---------| 
G-2--------2--------2-----4---------4----------4-----| 
D----------------------------------------------------| 
A----------------------------------------------------| 
E----------------------------------------------------| 

E----7--------0--------7-------7--------0----------7-| 
B-------8--------8----------------8---------8--------| 
G-7--------7--------7------7---------7----------7----| 
D----------------------------------------------------| 
A----------------------------------------------------| 
E----------------------------------------------------| 

Chorus: (x4) 

E---------------------------10-10-12-12-10-10-------------------| 
B----------10-10-12-12---------------------------12-12-10-10----| 
G-12-12---------------------------------------------------------| 
D---------------------------------------------------------------| 
A---------------------------------------------------------------| 
E---------------------------------------------------------------| 

E---------10-10---------10-10-----12-10-------------------------| 
B-12-12---------12-12-----------------------12-12-10------------| 
G---------------------------------------------------------------| 
D---------------------------------------------------------------| 
A---------------------------------------------------------------| 
E---------------------------------------------------------------| 


Verse: (x4) 


Chorus: (x4) 


2nd Verse (same as 1st): (x4) 


Outro: (x3) 

E-------------------------------------------------------------------------------------| 
B-5-5-5-5-5-5-5-5-9-9-9-9-9-9-9-9-12-12-12-12-12-12-12-12-12-12-12-12-12-12-12-12-----|  (x2) 
G-------------------------------------------------------------------------------------| 
D-------------------------------------------------------------------------------------| 
A-------------------------------------------------------------------------------------| 
E-------------------------------------------------------------------------------------| 


E--------------------------------------------------------------------------------------| 
B-0-0-0-0-0-0-0-0-2-2-2-2-2-2-2-2-7-7-7-7-7-7-7-7-7-7-7-7-7-7-7-7----------------------|  (x2) 
G--------------------------------------------------------------------------------------| 
D--------------------------------------------------------------------------------------| 
A--------------------------------------------------------------------------------------| 
E--------------------------------------------------------------------------------------| 
share this page

See Also: