E-Chords
Losing September

Pedestal(Tabs)

Losing September

Key: B
| /   slide up 
| \   slide down 
| h   hammer-on 
| p   pull-off 
| v   vibrato 
| +   harmonic 
| *   Pinch Harmonic 
| x   Mute note 
| b   Bend 
| pb  Pre-bend 
| br  Bend release 
| pbr Pre-bend release 
| brb Bend release bend 

************************************ 


Tuning: Drop B       B-F#-B-E-G#-C#  

  
Guitar 1 is the rhythm guitar. 
Guitar 2 is the lead guitar. 




  |INTRO   
  |Guitar 2 
C#|---------------------------| 
G#|---------------------------| 
E |---------------------------|  
B |-9h10p9-7-5-4--------------| 
F#|---------------------------| 
B |---------------------------| 
   



|INTRO   
|Guitar 1  
|------------------------------------------| 
|------------------------------------------| 
|------------------------------------------|     
|-----------------------------------PAUSE--| 
|--22--2---222---2---222---2---22----------| 
|--22--2---222---2---222---2---22----------| 
PM                  
| 
|Guitar 2 
|------------------------------------------| 
|------------------------------------------| 
|-1616-16-161616-16-161616-16-1616---------|     
|-----------------------------------PAUSE--| 
|-1414-14-141414-14-141414-14-1414---------| 
|------------------------------------------| 
       
         


|INTRO   
|Guitar 1  
|------------------------------------------| 
|------------------------------------------| 
|------------------------------------------|     
|-2-----45-0-----45---5--------5-----------| 
|-2-----45-0-----45---3--------5-----------| 
|-2-----45-0-----45------------5-----------|   
| 
|Guitar 2 
|------------------------------------------| 
|------------------------------------------| 
|------------------------------------------|     
|-2-----45-0-----45--5-5555---9h10p9-7-5-4-| 
|-2-----45-0-----45--3-3333----------------| 
|-2-----45-0-----45------------------------| 




|INTRO   
|Guitar 1  
|------------------------------------------| 
|------------------------------------------| 
|------------------------------------------|     
|-2-----45-0-----45---5--------5-----------| 
|-2-----45-0-----45---3--------5-----------| 
|-2-----45-0-----45------------5-----------|   
| 
|Guitar 2 
|------------------------------------------| 
|------------------------------------------| 
|------------------------------------------|     
|-2v--------------------------9h10p9-7-5-4-| 
|------------------------------------------| 
|------------------------------------------| 





********************************************************************************** 




(0:17) 
|verse 1  
|Guitar 1 and 2  
|------------------------------------------------------| 
|------------------------------------------------------| 
|------------------------------------------------------| 
|---------------------------5-5555-5-5-5---------------|  X3 
|-2-2222-2-2-2-0-0000-0-0-0-3-3333-3-3-3--5-555-4-4-4--|  
|-2-2222-2-2-2-0-0000-0-0-0---------------5-555-4-4-4--|  
PM..................................................... 




|verse 1  
|Guitar 1 and 2  
|------------------------------------------------------| 
|------------------------------------------------------| 
|------------------------------------------------------| 
|---------------------------5-5555-5-5-5--5------------|   
|-2-2222-2-2-2-0-0000-0-0-0-3-3333-3-3-3--5------------|  
|-2-2222-2-2-2-0-0000-0-0-0---------------5------------|  
PM......................................  let ring 





********************************************************************************** 




(0:45) 
|Chorus 1 
|Guitar 1  
|-----------------------------------------------------| 
|-----------------------------------------------------| 
|-----------------------------------------------------|     
|-2-----2-2-2-0----0-0-0-5-------5-5-5-7--------7-7-7-| 
|-2-----2-2-2-0----0-0-0-5-------5-5-5-7--------7-7-7-| 
|-2-----2-2-2-0----0-0-0-5-------5-5-5-7--------7-7-7-|   
|     
|                                                         x3 
|Guitar 2  
|-----------------------------------------------------| 
|-----------------------------------------------------| 
|-4-----4-4-4-7----7-7-7-4-------4-4-4-/12----12-11-9-|     
|-----------------------------------------------------| 
|-2-----2-2-2-5----5-5-5-2-------2-2-2-/10----10--9-7-|  
|-----------------------------------------------------| 




|Chorus 1 
|Guitar 1  
|-----------------------------------------------------| 
|-----------------------------------------------------| 
|-----------------------------------------------------|     
|-2-----2-2-2-0----0-0-0-5-------5-5-5-7--------7-7-7-| 
|-2-----2-2-2-0----0-0-0-5-------5-5-5-7--------7-7-7-| 
|-2-----2-2-2-0----0-0-0-5-------5-5-5-7--------7-7-7-|   
|     
|                                                           
|Guitar 2  
|-----------------------------------------------------| 
|-----------------------------------------------------| 
|-4-----4-4-4-7----7-7-7-4-------4-4-4----------------|     
|----------------------------------------9h10p9-7-5-4-| 
|-2-----2-2-2-5----5-5-5-2-------2-2-2----------------|  
|-----------------------------------------------------| 





********************************************************************************** 




(1:12) 
|verse 1  
|Guitar 1 and 2  
|------------------------------------------------------| 
|------------------------------------------------------| 
|------------------------------------------------------| 
|---------------------------5-5555-5-5-5---------------|  x2  
|-2-2222-2-2-2-0-0000-0-0-0-3-3333-3-3-3--5-555-4-4-4--|  
|-2-2222-2-2-2-0-0000-0-0-0---------------5-555-4-4-4--|  
PM..................................................... 




|verse 1  
|Guitar 1 and 2  
|--------------------------------------------------------------| 
|--------------------------------------------------------------| 
|--------------------------------------------------------------| 
|---------------PAUSE---------------5-5555-5-5-5---------------|    
|-2-2222-2-2-2---------0-0000-0-0-0-3-3333-3-3-3--5-555-4-4-4--|  
|-2-2222-2-2-2---------0-0000-0-0-0---------------5-555-4-4-4--|  
PM............         ...................................... 




|verse 1  
|Guitar 1 and 2  
|------------------------------------------------------------------------| 
|------------------------------------------------------------------------| 
|------------------------------------------------------------------------| 
|---------------------------5-5555-5-5-5--5------------(5)---------PAUSE-|   
|-2-2222-2-2-2-0-0000-0-0-0-3-3333-3-3-3--5------------(5)---------------|  
|-2-2222-2-2-2-0-0000-0-0-0---------------5------------(5)---------------|  
PM......................................  let ring for two more beats 






********************************************************************************** 




(1:41) 
|Chorus 2 
|Guitar 1  
|-----------------------------------------------------| 
|-----------------------------------------------------| 
|-----------------------------------------------------|     
|-2-----2-2-2-0----0-0-0-5-------5-5-5-7--------7-7-7-| 
|-2-----2-2-2-0----0-0-0-5-------5-5-5-7--------7-7-7-| 
|-2-----2-2-2-0----0-0-0-5-------5-5-5-7--------7-7-7-|   
|     
|                                                         x3 
|Guitar 2  
|-----------------------------------------------------| 
|-----------------------------------------------------| 
|-4-----4-4-4-7----7-7-7-4-------4-4-4-/12----12-11-9-|     
|-----------------------------------------------------| 
|-2-----2-2-2-5----5-5-5-2-------2-2-2-/10----10--9-7-|  
|-----------------------------------------------------| 




|Chorus 2 
|Guitar 1  
|-----------------------------------------------------| 
|-----------------------------------------------------| 
|-----------------------------------------------------|     
|-2-----2-2-2-0----0-0-0-5-------5-5-5-7--------7-7-7-| 
|-2-----2-2-2-0----0-0-0-5-------5-5-5-7--------7-7-7-| 
|-2-----2-2-2-0----0-0-0-5-------5-5-5-7--------7-7-7-|   
|     
|                                                           
|Guitar 2  
|-----------------------------------------------------| 
|-----------------------------------------------------| 
|-4-----4-4-4-7----7-7-7-4-------4-4-4----------------|     
|----------------------------------------9h10p9-7-5-4-| 
|-2-----2-2-2-5----5-5-5-2-------2-2-2----------------|  
|-----------------------------------------------------| 






********************************************************************************** 




(2:09) 
|SOLO 
|Guitar 1  
|----------------------------------------------------------| 
|----------------------------------------------------------| 
|----------------------------------------------------------|     
|-2--------2-2-2-0----0-0-0-5-------5-5-5-7--------7--7--7-| 
|-2--------2-2-2-0----0-0-0-5-------5-5-5-7--------7--7--7-| 
|-2--------2-2-2-0----0-0-0-5-------5-5-5-7--------7--7--7-|   
|     
|                                                           
|Guitar 2  
|----------------------------------------------------------| 
|----------------------------------------------------------| 
|----------------------------------------------------------| 
|-2v-----222-4--/5---555-7--/9----999-10--/12-----12-12-12-| 
|--------------5-----------9------------12-----------------| 
|----------------------------------------------------------| 



|SOLO 
|Guitar 1  
|-------------------------------------------------------------------------| 
|-------------------------------------------------------------------------| 
|-------------------------------------------------------------------------|     
|-2--------2-2-2-0----------0--0--0--5------------5-5-5-7---------7--7--7-| 
|-2--------2-2-2-0----------0--0--0--5------------5-5-5-7---------7--7--7-| 
|-2--------2-2-2-0----------0--0--0--5------------5-5-5-7---------7--7--7-|   
|     
|                                                           
|Guitar 2  
|-------------------------------------------------------------------------| 
|-------------------------------------------------------------------------| 
|-9v----999-11---/12---121212-14---/16-----161616-17---/19-------19-19-19-| 
|--------------12---------------16-------------------19-------------------| 
|-------------------------------------------------------------------------| 
|-------------------------------------------------------------------------| 



|SOLO 
|Guitar 1  
|-------------------------------------------------------------------------------| 
|-------------------------------------------------------------------------------| 
|-------------------------------------------------------------------------------|     
|-2--------2--2--2--0----------0---0---0--5------5-5-5-7---------------7--7--7--| 
|-2--------2--2--2--0----------0---0---0--5------5-5-5-7---------------7--7--7--| 
|-2--------2--2--2--0----------0---0---0--5------5-5-5-7---------------7--7--7--|   
|     
|                                                           
|Guitar 2  
|--------------------------------------------------------------------------------| 
|-17v-----19-17-19p1719-----/201917-/201917-/201917-/201917h19p17h19p17-15-17-15-| 
|--------------------------------------------------------------------------------| 
|--------------------------------------------------------------------------------| 
|--------------------------------------------------------------------------------| 
|--------------------------------------------------------------------------------| 



|SOLO 
|Guitar 1  
|---------------------------------------------------------------------------| 
|---------------------------------------------------------------------------| 
|---------------------------------------------------------------------------|     
|-2--------2--2--2--0---------0--0--0--5-------5--5--5--7-----------7--7--7-| 
|-2--------2--2--2--0---------0--0--0--5-------5--5--5--7-----------7--7--7-| 
|-2--------2--2--2--0---------0--0--0--5-------5--5--5--7-----------7--7--7-|   
|     
|                                                           
|Guitar 2  
|------------------14---------14-14-14-15-----15-15-15-15----------15-15-15--| 
|-17------17-17-17-17b--------17b17b17b18b----18b18b18b18----------18b18b18b-| 
|----------------------------------------------------------------------------| 
|----------------------------------------------------------------------------| 
|----------------------------------------------------------------------------| 
|----------------------------------------------------------------------------| 





********************************************************************************** 



(2:35) 
|BREAKDOWN   
|Guitar 1  
|------------------------------------------| 
|------------------------------------------| 
|------------------------------------------|     
|-----------------------------------PAUSE--| 
|--22--2---222---2---222---2---22----------| 
|--22--2---222---2---222---2---22----------| 
PM                  
| 
|Guitar 2 
|------------------------------------------| 
|------------------------------------------| 
|-1616-16-161616-16-161616-16-1616---------|     
|-----------------------------------PAUSE--| 
|-1414-14-141414-14-141414-14-1414---------| 
|------------------------------------------| 




|BREAKDOWN   
|Guitar 1  
|--------------------------------------------------------------------------------| 
|--------------------------------------------------------------------------------| 
|--------------------------------------------------------------------------------|     
|--------------------------------------------------------------------------------| 
|--22--2---222---2---222---2---222---2---2-55--5---555---5---555---5---555-5---5-| 
|--22--2---222---2---222---2---222---2---2-55--5---555---5---555---5---555-5---5-| 
PM                  
| 
|Guitar 2 
|--------------------------------------------------------------------------------| 
|--------------------------------------------------------------------------------| 
|-1616-16-161616-16-161616-16-161616-16-16-77--7---777---7---777---7---777-7---7-|     
|--------------------------------------------------------------------------------| 
|-1414-14-141414-14-141414-14-141414-14-14-55--5---555---5---555---5---555-5---5-| 
|--------------------------------------------------------------------------------| 




|BREAKDOWN   
|Guitar 1  
|--------------------------------------------------------------------------------| 
|--------------------------------------------------------------------------------| 
|--------------------------------------------------------------------------------|     
|--------------------------------------------------------------------------------| 
|--00--0---000---0---000---0---000---0---0-77---7---777--7---777---7--777--7--7--| 
|--00--0---000---0---000---0---000---0---0-77---7---777--7---777---7--777--7--7--|                 
| 
|Guitar 2 
|--------------------------------------------------------------------------------| 
|--------------------------------------------------------------------------------| 
|-1414-14-141414-14-141414-14-141414-14-141212-12-121212-12-1211-11-111111-11-11-|     
|--------------------------------------------------------------------------------| 
|-1212-12-121212-12-121212-12-121212-12-121010-10-101010-10-10-9--9--9-9-9--9--9-| 
|--------------------------------------------------------------------------------| 




|BREAKDOWN   
|Guitar 1  
|--------------------------------------------------------------------------------| 
|--------------------------------------------------------------------------------| 
|--------------------------------------------------------------------------------|     
|--------------------------------------------------------------------------------| 
|--22--2---222---2---222---2---222---2---2-55--5---555---5---555---5---555-5---5-| 
|--22--2---222---2---222---2---222---2---2-55--5---555---5---555---5---555-5---5-| 
PM                  
| 
|Guitar 2 
|--------------------------------------------------------------------------------| 
|--------------------------------------------------------------------------------| 
|-1616-16-161616-16-161616-16-161616-16-16-77--7---777---7---777---7---777-7---7-|     
|--------------------------------------------------------------------------------| 
|-1414-14-141414-14-141414-14-141414-14-14-55--5---555---5---555---5---555-5---5-| 
|--------------------------------------------------------------------------------| 




|BREAKDOWN   
|Guitar 1  
|--------------------------------------------------------------| 
|--------------------------------------------------------------| 
|--------------------------------------------------------------|     
|--------------------------------------------------------------| 
|--00--0---000---0---000---0---000---0---0-77---7---777--7---7-| 
|--00--0---000---0---000---0---000---0---0-77---7---777--7---7-|               
| 
|Guitar 2 
|--------------------------------------------------------------| 
|--------------------------------------------------------------| 
|-1414-14-141414-14-141414-14-141414-14-141212-12-121212-12-12-|     
|--------------------------------------------------------------| 
|-1212-12-121212-12-121212-12-121212-12-121010-10-101010-10-10-| 
|--------------------------------------------------------------| 




|BREAKDOWN   
|Guitar 1  
|------------------------------------------------| 
|------------------------------------------------| 
|------------------------------------------------|     
|-----------------------------------------PAUSE--| 
|-77---7---777--7---777---7--777--7--7-----------| 
|-77---7---777--7---777---7--777--7--7-----------|                 
| 
|Guitar 2 
|------------------------------------------------| 
|------------------------------------------------| 
|------------------------------------------------|     
|-----------------------------------------PAUSE--| 
|-77---7---777--7---777---7--777--7--7-----------| 
|-77---7---777--7---777---7--777--7--7-----------| 





********************************************************************************** 




(3:07) 
|Chorus 3 
|Guitar 1  
|-----------------------------------------------------| 
|-----------------------------------------------------| 
|-----------------------------------------------------|     
|-2-----2-2-2-0----0-0-0-5-------5-5-5-7--------7-7-7-| 
|-2-----2-2-2-0----0-0-0-5-------5-5-5-7--------7-7-7-| 
|-2-----2-2-2-0----0-0-0-5-------5-5-5-7--------7-7-7-|   
|     
|                                                         x3 
|Guitar 2  
|-----------------------------------------------------| 
|-----------------------------------------------------| 
|-4-----4-4-4-7----7-7-7-4-------4-4-4-/12----12-11-9-|     
|-----------------------------------------------------| 
|-2-----2-2-2-5----5-5-5-2-------2-2-2-/10----10--9-7-|  
|-----------------------------------------------------| 




|Chorus 3 
|Guitar 1  
|-----------------------------------------------------| 
|-----------------------------------------------------| 
|-----------------------------------------------------|     
|-2-----2-2-2-0----0-0-0-5-------5-5-5-7--------7-7-7-| 
|-2-----2-2-2-0----0-0-0-5-------5-5-5-7--------7-7-7-| 
|-2-----2-2-2-0----0-0-0-5-------5-5-5-7--------7-7-7-|   
|     
|                                                           
|Guitar 2  
|-----------------------------------------------------| 
|-----------------------------------------------------| 
|-4-----4-4-4-7----7-7-7-4-------4-4-4----------------|     
|----------------------------------------9h10p9-7-5-4-| 
|-2-----2-2-2-5----5-5-5-2-------2-2-2----------------|  
|-----------------------------------------------------| 





********************************************************************************** 




(3:34 
|OUTRO   
|Guitar 1  
|------------------------------------------| 
|------------------------------------------| 
|------------------------------------------|     
|-----------------------------------PAUSE--| 
|--22--2---222---2---222---2---22----------| 
|--22--2---222---2---222---2---22----------| 
PM                  
| 
|Guitar 2 
|------------------------------------------| 
|------------------------------------------| 
|-1616-16-161616-16-161616-16-1616---------|     
|-----------------------------------PAUSE--| 
|-1414-14-141414-14-141414-14-1414---------| 
|------------------------------------------| 
| 
| 
| 
| 
|END 

roll up this ad to continue

share this page

See Also: