Los Saicos

El Entierro De Los Gatos(Tabs)

Los Saicos

Key: E

roll up this ad to continue

	        INTRO : 

    E    D         E    D             

E |------4----------------------| 
B |-5~-5----5--3---3~-3?6-5-3---| 
G |--------------4------------4-| 
D |-----------------------------| 
A |-----------------------------| 
E |-----------------------------| 
                               YAAAAAAH  

    E    D         E    D       

E |------4----------------------| 
B |-5~-5----5--3---3~-3?6-5-3---| 
G |--------------4------------4-| 
D |-----------------------------| 
A |-----------------------------| 
E |-----------------------------| 


    E    D         E    D       

E |------4----------------------| 
B |-5~-5----5--3---3~-3?6-5-3---| 
G |--------------4------------4-| 
D |-----------------------------| 
A |-----------------------------| 
E |-----------------------------|
E D E D HA MUERTO EL GATO MAYOR E D E D ( HA MUERTO EL GATO MAYOR ) E D E D HA MUERTO EL GATO MAYOR E D E E ( HA MUERTO EL GATO MAYOR ) YAAAAAAH G E LO LLEVAN A ENTERRAR YAAAAAAH G E LO LLEVAN A ENETERRAR YAAAAAAH F E AHORA YO HE DE MANDAR F E7 SERE EL GATO MAYOR AHHHHH SAICO E D E D ( 3 VECES ) E |------4----------------------| B |-5~-5----5--3---3~-3?6-5-3---| G |--------------4------------4-| D |-----------------------------| A |-----------------------------| E |-----------------------------| YAAAAAAAAH E E |------4------------4-------| B |-5~-5---5-3---5~-5---5-3---| G |------------4------------4-| D |---------------------------| A |---------------------------| E |---------------------------| E D E D ( 3 VECES ) E |------4----------------------| B |-5~-5----5--3---3~-3?6-5-3---| G |--------------4------------4-| D |-----------------------------| A |-----------------------------| E |-----------------------------| E E |------4------------4-------| B |-5~-5---5-3---5~-5---5-3---| G |------------4------------4-| D |---------------------------| A |---------------------------| E |---------------------------| G E YA EL VIEJO MURIO G E YA EL VIEJO MURIO F E SERE EL GATO MAYOR F E7 SERE EL GATO MAYOR E D E D ( 3 VECES ) E |------4----------------------| B |-5~-5----5--3---3~-3?6-5-3---| G |--------------4------------4-| D |-----------------------------| A |-----------------------------| E |-----------------------------| E D E D UN GATO NEGRO LLEGO E D E D ( UN GATO NEGRO LLEGO ) E D E D UN GATO NEGRO LLEGO E D E D ( UN GATO NEGRO LLEGO ) G E LO VOY A TENER QUE MATAR G E LO VOY A TENER QUE MATAR F E AHORA YA HE DE MANDAR F E7 SERE EL GATO MAYOR ? AHHHHH E D E D ( 3 VECES ) E |------4----------------------| B |-5~-5----5--3---3~-3?6-5-3---| G |-------------4-------------4-| D |-----------------------------| A |-----------------------------| E |-----------------------------| E E |-----4-------------4-------|-0--| B |-5~-5---5-3---5~-5---5-3---|-0--| G |-----------4-------------4-|-1--| D |---------------------------|-2--| A |---------------------------|-2--| E |---------------------------|-0--|

See Also: