E-Chords
Los Lamas

Primer Amor(Tabs)

Los Lamas

roll up this ad to continue

INTRO: 

E/-------------------------------------------------------------- 
A/-------------------------------------------------------------- 
D/-------------------------------------------------------------- 
G/-6-----------------------------10-8-10------------------------ 
B/---6-6-6-6-6-6?-11-11-9-9-8-8-----------6-6-6-6-6-6----------- 
E/-------------------------------------------------------------- 


SIGUE ASI!!! 

E/-------------------------------------------------------------- 
A/-------------------------------------------------------------- 
D/-------------8-6-8--------------------------8-6-8------------- 
G/-8-8-7-7-5-5-------5-5-5-5-5-5?-8-8-7-7-5-5-------7-7-7-7-7-7- 
B/-------------------------------------------------------------- 
E/-------------------------------------------------------------- 


SIGUE ASI!!! 

E/-------------------------------------------------------------- 
A/-------------------------------------------------------------- 
D/-6-----6-----6--------5-----5-----5-------8------8------8----- 
G/---8-7---8-7---8-7-8----8-7---8-7---8-7-8---10-8---10-8---10-8 
B/-------------------------------------------------------------- 
E/-------------------------------------------------------------- 


SIGUE ASI!!! 

E/-------------------------------------------------------------- 
A/-------------------------------------------------------------- 
D/-8------------------------------------------------------------ 
G/--7-8-8-8?10-12-12-12?-8-10-12-12-12-12----------------------- 
B/-------------------------------------------------------------- 
E/-----------------------------------------11------------------- 


PARA MÍ LA INTRO ESTA BIEN!!! 

KAPAZ LA ÚLTIMA PARTE ESTA MEDIA MEDIA!!! 

PERO SUENA BIEN IGUAL!!! 

ESPERO QUE LES GUSTE!!! 

SUERTE!!! 

*** MANTO NEGRO R?N?R *** 

ESTA CANCION VA PARA  ------ ¿? 

SEIS LETRAS!!! 

JEJEJE!!! 

CCCHHHAAAUUU
share this page

See Also: