E-Chords
Los Indios Tabajaras

Lisboa Antigua(Tabs)

Los Indios Tabajaras

roll up this ad to continue

Tuning: Standard 

e|-----------------|----2--3--5---2-----~3-|---3---3-------~2---|--------------------~5-| 
B|-3--~5---3---~b5-|-5---------------5-3---|-5---5---5--3-----3-|---~5------~3--3/~5----| 
G|-----------------|-----------------------|--------------------|-5-----5-4-------------| 
D|-----------------|-----------------------|--------------------|-----------------------| 
A|-----------------|-----------------------|--------------------|-----------------------| 
E|-----------------|-----------------------|--------------------|-----------------------| 

e|-7--5-------------------------3-|-0----1/2-2-------|---------0--2---~3-|--------------| 
B|------7--5-----------------3----|---3--------3--~1-|-0-1--3------------|-3--~5--3--~b5|Repeat 1st verse 
G|------------7--7\~4--4--5-------|------------------|-------------------|--------------| 
D|--------------------------------|------------------|-------------------|--------------| 
A|--------------------------------|------------------|-------------------|--------------| 
E|--------------------------------|------------------|-------------------|--------------| 

e|----2--3---5--2--------~3--|---3----3-------~2-----|-----------------------~5---------| 
B|-5---------------5--3------|-5----5----5-3------3--|----~5-------~3--3/~5-------------| 
G|---------------------------|-----------------------|-5-----5--4-----------------------| 
D|---------------------------|-----------------------|----------------------------------| 
A|---------------------------|-----------------------|----------------------------------| 
E|---------------------------|-----------------------|----------------------------------| 

e|--7--5------------------------3-|-0-----1/2-2------|---------0-2--~3------------------| 
B|-------7--5-----------------3---|----3--------3-~1-|-0-1--3---------------------------| 
G|-------------7--7\~4--4-5-------|------------------|----------------------------------| 
D|--------------------------------|------------------|----------------------------------| 
A|--------------------------------|------------------|----------------------------------| 
E|--------------------------------|------------------|----------------------------------| 

e|-6--5----------5h6-5-------|---------6--------|-------2/3-----------------------------|Chorus 
B|-------7----7--------7-----|-------7---8------|-3-3-3-----3/4-6---1-3--6\4--3---------| 
G|---------7--------------~7-|-5-7-8-------~7---|-----------------3---------------------| 
D|---------------------------|------------------|---------------------------------------| 
A|---------------------------|------------------|---------------------------------------| 
E|---------------------------|------------------|---------------------------------------| 

e|-6--5------5h6-5------5h8-6|-5---------5-~3---|---------------|---2--3--5--2-------~3-|Last verse 
B|------7-----------~4-------|---7----7---------|--3-~5---3-~b5-|-5-------------5--3----| 
G|--------7------------------|------8-----------|---------------|-----------------------| 
D|---------------------------|------------------|---------------|-----------------------| 
A|---------------------------|------------------|---------------|-----------------------| 
E|---------------------------|------------------|---------------|-----------------------| 

e|---3---3-------~2----------|----------------------~5-|--7--5----------------------3---| 
B|-5---5---5--3------3-------|---~5--------~3--3/~5----|-------7--5----------------3----| 
G|---------------------------|-5-----5--4--------------|-------------7-7\~4--4--5-------| 
D|---------------------------|-------------------------|--------------------------------| 
A|---------------------------|-------------------------|--------------------------------| 
E|---------------------------|-------------------------|--------------------------------| 

e|--0---1/2--2---------------|-------------5---3-------|--10--8-------------------------| 
B|----3---------3-~1---------|-0--1--3--5--------------|---------10--8------------------| 
G|---------------------------|-------------------------|----------------9--7------------| 
D|---------------------------|-------------------------|----------------------9--7------| 
A|---------------------------|-------------------------|----------------------------10--| 
E|---------------------------|-------------------------|--------------------------------| 


************************************ 

| /   slide up 
| \   slide down 
| h   hammer-on 
| p   pull-off 
| ~   vibrato 
| +   harmonic 
| x   Mute note 
| b   Bend 
| pb  Pre-bend 
| br  Bend release 
| pbr Pre-bend release 
| brb Bend release bend 

************************************ 
share this page

See Also: