E-Chords
Los Hooligans

Adios A Jamaica (Solo)(Tabs)

Los Hooligans

roll up this ad to continue

Key: C
Intro:                                                          
                                                                
e ------------------------------------------------------------  
B -----------------------1-1----------------------------------  
G.---------0--0--------2-----2-----------------------0-0------. 
D.-------2------2----3---------3-------0-0---------2-----0----. 
A -----3----------3-----------------2------2-----3---------3--  
E --------------------------------3----------3----------------  
                                                                
       C             F            G              C              
                                                                
                                                                 
                    F 
Por el camino donde sale el sol... 



Solo guitarra:                                     
      C           F         G           C         
e------------------------------------------------  
B-------------------0-1-0------------------------  
G---------0-0-0-0-2-------2-0-0-------------0----  
D-------2-----------------------3-3-3-3-2-3------  
A-----3------------------------------------------  
E------------------------------------------------  
                                                   
                                                   
                  F         G           C          
e------------------------------------------------  
B-------------------0-1-0------------------------  
G-----0-0-0-0-0-0-2-------2-0-0------------------  
D-------------------------------3-3-3-3-2-0------  
A-------------------------------------------3----  
E------------------------------------------------  



...Por eso a Jamaica le digo adiós 
                  C 
para olvidar este triste dolor 
                      F  
mi corazón muy triste se encontró 
          G                   C        
porque la nena que mas quiero me dejó 
                                                               
       C             F           G              C               
e ------------------------------------------------------------  
B -----------------------1-1----------------------------------  
G.---------0--0--------2-----2-----------------------0-0------. 
D.-------2------2----3---------3-------0-0---------2-----0----. 
A -----3----------3-----------------2------2-----3---------3--  
E --------------------------------3----------3---------------- 
share this page

See Also: