E-Chords
Lj Manzano

Hay Nako(Tabs)

Lj Manzano

roll up this ad to continue

        

e---------3------0--------------------| 
B--0-1-3--3--0-1-3--3-0-----1---------| 
G---------o------0------2-0-0---------| 
D---------0------0----------2---------| 
A---------2------2----------3---------| 
D---------3---------------------------| 
     hay nako may pag'asa ba ako 

intro 

e---3------3-------3-----3-------3-----3------3--| 
B--3---x-3---3-x-3---x-3---3-x-3---x-3---3-x--4--| 
G---------------------------------------------5--| 
D---------------------------------------------5--| 
A------x---------2---x-2-----x-3---x-3-----x--3--| 
D--3---x-3-----x---------------------------------| 


verse 1 

e-------------------------------------3-----3------------| 
B-0-0-0-------0----------3---3------3---x-3---3-x--------| 
G-------2-0-2---2--0-(0)---------0-----------------------| 
D------------------------------2-------------------------| 
A-----------2---2-------------------3---x-3-----x--------| 
D-3---3------------------0-x-0---------------------------| 
     bkt pag kasama kay . . 

e--------------------------------------------------------| 
B--1-1-1--1-1---------------------3-x---3----------------| 
G--2--(2)-----------------------------------2-0-----0----| 
D--2----------2-2s4---4--2-0-(0)----------2------2s4-----| 
A--0--------0-------5-------------2-x-2-2----------------| 
D-------------------------------------------0------------| 
      di nmn ako ganito. . 

e--------------------------------------------------------| 
B----1-1-1--1-1------------------------------------------| 
G----2--(2)----------------------------------------------| 
D--2-2----------2-4--------------------------------------| 
A----0--------0-----5------------------------------------| 
D--------------------------------------------------------| 
      ngiti mo lng . . 


 verse 2 
e--------------------------------------3-----3-------------| 
B--0-0-0-------0----------3---3------3---x-3---3-x---------| 
G--------2-0-2---2--0-(0)---------0------------------------| 
D-------------------------------2--------------------------| 
A------------2---2-------------------3---x-3-----x---------| 
D--3---3------------------0-x-0----------------------------| 
    oras di ko napapansin . . 

e--------------------------------------------------------| 
B--1-1---------------------3-x---3-----------0-----------| 
G--2---------------------------------2-0-------0---------| 
D--2---2(2)-2s4---4-2-0-(0)--------2-------------2-------| 
A--0------------5----------2-x-2-2-----------------------| 
D------------------------------------0-----0-------------| 
    magka insomnia na . . 

e--------------------------------------------------------| 
B---(1)--------------------------------------------------| 
G---(2)-----0--------------------------------------------| 
D--2-2--2-2---2-4----------------------------------------| 
A----0------------5--------------------------------------| 
D--------------------------------------------------------| 
    mahal na kaya . . 

Chorus 
e-----------(3)-------0-(0)---------3-----3--------3-----| 
B-0-1-3-----(3)---0-1----3--0-----3---x-3---3-x--3---x---| 
G---------0-------------------2-0------------------------| 
D--------------------------------------------------------| 
A---------------------2-----2-----3---x-3-----x--3---x---| 
D-------3-------3----------------------------------------| 
    hay nako may pag'asa ba . . 

e---------------------0-------------3------3--------3----| 
B---0-1-3--1-0-----1----3---0---0-3---x--3---3-x--3---x--| 
G-0--------------0------------2--------------------------| 
D--------------------------------------------------------| 
A---------------------2---2-2-----3---x--3-----x--3---x--| 
D---------3----3-----------------------------------------| 
    sabihin mo akoy, . . 

e-----------(3)-------0-(0)---------3-----3--------3-----| 
B-0-1-3-----(3)---0-1----3--0-----3---x-3---3-x--3---x---| 
G---------0-------------------2-0------------------------| 
D--------------------------------------------------------| 
A---------------------2-----2-----3---x-3-----x--3---x---| 
D-------3-------3----------------------------------------| 
    hay nako may pag'asa ba . . 

e---------------------0-------------3------3--------3----| 
B---0-1-3--1-0-----1----3---0---0-3---x--3---3-x--3---x--| 
G-0--------------0------------2--------------------------| 
D--------------------------------------------------------| 
A---------------------2---2-2-----3---x--3-----x--3---x--| 
D---------3----3-----------------------------------------| 
    sabihin mo sakin kong, 

e--------------------------------------------------------| 
B--1-3---------------------------------------------------| 
G--2---0---2-0-------------------------------------------| 
D--0-----------------------------------------------------| 
A--------------------------------------------------------| 
D--------------------------------------------------------| 
      trip mo ba . . 


repeat intro 
  then apply harmonics on the 12 fret 

verse 3 
e-------------------------------------3-----3------------| 
B-0-0-0-------0----------3---3------3---x-3---3-x--------| 
G-------2-0-2---2--0-(0)---------0-----------------------| 
D------------------------------2-------------------------| 
A-----------2---2-------------------3---x-3-----x--------| 
D-3---3------------------0-x-0---------------------------| 
     para na kong tanga . . 

e---------------------------------------------0----------| 
B--1--1--1-------------------3-x---3------------0--------| 
G--2-(2)-------------------------------2-0--------0------| 
D--2-------2--2s4--4-2-0-(0)---------2-------------------| 
A--0-----0-------5-----------2-x-2-2---------------------| 
D--------------------------------------0----0------------| 
    may exam pa . . 

e--------------------------------------------------------| 
B----1-1-1--1-1------------------------------------------| 
G----2--(2)----------------------------------------------| 
D--2-2----------2-2-2s4----------------------------------| 
A----0--------0---------5--------------------------------| 
D--------------------------------------------------------| 
    sayo kaya . . 


 repeat Chorus ! 


bridge 
e-------3-3-1----------3-3-2----3-2-3---7----------------| 
B---1-1---0-----3-x--3---0-------------------------------| 
G---2-2---------------------------------0----------------| 
D---2-2--------------------------------------------------| 
A---0-0-------2---x--2--------3--------------------------| 
D---------------------------------------8----------------| 
    hoo woo hoo 

guitar taping part . .. 
e-----------------0--------------------------------------| 
B-0-1-3-------0-1---3-0----------------------------------| 
G-----------------------2-0-----------5-5-5-5------------| 
D-------------------------------------5-5-5-5------------| 
A-----------------2-x-----------------3-3-3-3------------| 
D-------3-x-3----------------5-x-5-x---------------------| 



e-----------(3)-------0-(0)---------3-----3--------3-----| 
B-0-1-3-----(3)---0-1----3--0-----3---x-3---3-x--3---x---| 
G---------0-------------------2-0------------------------| 
D--------------------------------------------------------| 
A---------------------2-----2-----3---x-3-----x--3---x---| 
D-------3-------3----------------------------------------| 
    hay nako may pag'asa ba . . 

e---------------------0-------------3------3--------3----| 
B---0-1-3--1-0-----1----3---0---0-3---x--3---3-x--3---x--| 
G-0--------------0------------2--------------------------| 
D--------------------------------------------------------| 
A---------------------2---2-2-----3---x--3-----x--3---x--| 
D---------3----3-----------------------------------------| 
    sabihin mo sakin . . 

e----------3---3------3----3-2---0------3----------------| 
B--0-1-3-----3---x--3--------------0-1--4----------------| 
G---------------------------------------5----------------| 
D---------------------------------------5----------------| 
A-------------------2----2-----3--------3----------------| 
D--------3---3---x---------------------------------------| 
    hay nako . . 



outro 

e-------------3--------0----------------------0----------| 
B--0-1-3----3-----0--1-----3---0------------1---1--------| 
G---------0--------------0---0----2-0-----0--------------| 
D---------------------------------------2----------------| 
A----------------------2-------2------3------------------| 
D--------3-----------------------------------------------| 
   hay nako may pag'asa ba ako
        
share this page

See Also: