E-Chords
Little Texas

Souther Grace(Tabs)

Little Texas

roll up this ad to continue

Solo 
 
e--------------------------------------------------------------------- 
b--------------------------------------------------------------------- 
g-/7~~~~~~-----------------------------------------------------7--8--- 
d---------------7-9---------------------------------------7--9-------- 
a-----------7/9-----9\7--5--7h9--7-------5--7p5p4--5-7/9-------------- 
E--------------------------------------------------------------------- 
 
e-10~~~~~~-10--12-------------------------------- 
b------------------10---12--8h10p8/7------------- 
g-------------------------------------9--7~~~~--- 
d------------------------------------------------ 
a------------------------------------------------ 
E------------------------------------------------ 
 
e-------------------------------------------15-17--- 
b----------------------------------15-17-19--------- 
g----------------14-16-17-14-16-17------------------ 
d-------14-16-17------------------------------------ 
a-15-17--------------------------------------------- 
E--------------------------------------------------- 
share this page

See Also: