E-Chords
Lindsay Lohan

Take me away(Tabs)

Lindsay Lohan

Key: F#5
Intro - F#5 
 
Riff : 
e|------------------------------------------------------------| 
B|------------------------------------------------------------| 
G|------------------------------------------------------------|  
D|------------------------------------------------------------| 
A|--------0-1-2--------3-2-0-2-2-1-0-----------------------|  
E| ---2-2-----------------------------------------------------| 
 
Yeah, Yeah 
 
Get up, Get out 
Move on, Move on there?s no doubt 
I?m all wrong, you?re right 
It?s all the same with you 
I?m too fit, too fat  
You miss squat  
So why, 
So why, 
So why, 
So why  
 
F#5 
On and on,  
And on and on,  
On and on, 
And on and on, 
 
Refrão 
D5                             F#5 
    Don?t want to grow up 
                       B5    
    I want to get out 
             A5         D5 
    Hey, take me away  
                           F#5 
    I want to shout out 
                  B5 
    Take me away,  
        A5     
    Away,  
         E5    
    Away,  
        F#5 
    Away, 
        C#5 
    Away, 
 
e |---------------------------------------------------------| 
B|---------------------------------------------------------| 
G|------------------------------------------------------------|  
D|------------------------------------------------------------| 
A|--------0-1-2--------3-2-0-2-2-1-0--------------------|  
E| ---2-2--------------------------------------------------| 
 
 
Round and round here we go again 
Same old start, same old end 
Turn my head  
And turn back again  
Same old stuff never ends 
Do this, do that  
Can?t deal Can?t deal with that 
I tune in, tune out 
I?ve heard it all before 
Hello, goodbye 
Never asking me why, 
Goodbye,  
Goodbye,  
Goodbye,  
 
F#5 
On and on,  
And on and on, 
On and on, 
And on and on, 
 
Refrão 
 
D5                             F#5 
    Don?t want to grow up 
                       B5    
    I want to get out 
             A5         D5 
    Hey, take me away  
                           F#5 
    I want to shout out 
                  B5 
    Take me away,  
        A5     
    Away,  
         E5    
    Away,  
        F#5 
    Away, 
        C#5 
    Away, 
 
Riff 
 
Round and round here we go again 
Same old story, same old end 
Turn my head  
And turn back again  
Same old stuff never ends  
 
_______________________________________________________ 
Contribuição: Giovanna Pedace([email protected]) 

roll up this ad to continue

share this page

See Also: