E-Chords
LiL PEEP

Worlds Away(Tabs)

LiL PEEP

roll up this ad to continue

Key: B
Intro C  G  D  Em  C 

E|-------------------------------------------| 
B|-------------------------------------------| 
G|-------------2-------------2---------------| 
D|---------4---------------------------------| 
A|---5-------------------4-------------------| 
E|-----------------5-------------------------| 

E|-------------------------------------------| 
B|-------------------------------------------| 
G|-------------1----------------2------------| 
D|----------2----------------4---------------| 
A|-------------------------------------------| 
E|---0----------------2----------------------| 
share this page

See Also: