E-Chords
LiL PEEP

Fingers(Tabs)

LiL PEEP

roll up this ad to continue

Intro 

e|----------------------------|----------------------------|----------------------------| 
B|----------------------------|----------------------------|----------------------------| 
G|--------------------9-------|--9--9-----9--9--9--9--9----|--------------------9--9----| 
D|--10----10-12----12---------|----------------------------|--10----10-12----12---------| 
A|----------------------------|----------------------------|----------------------------| 
E|----------------------------|----------------------------|----------------------------| 


e|----------------------------|----------------------------|----------------------------| 
B|----------------------------|----------------------------|----------------------------| 
G|--9--9--------9/12--12-12---|--------------------9--9----|--9--9--9--9--9--9--9--9----| 
D|----------------------------|--10----10-12----12---------|----------------------------| 
A|----------------------------|----------------------------|----------------------------| 
E|----------------------------|----------------------------|----------------------------| 


Begin picking harder here, add distortion 
e|----------------------------|----------------------------| 
B|----------------------------|----------------------------| 
G|--9--9--9--9--9--9--9--9----|--9--9--9--9--9--9--9--9----| 
D|----------------------------|----------------------------| 
A|----------------------------|----------------------------| 
E|----------------------------|----------------------------| 


Verse (PM) 
(First 2 bars only after intro, do not repeat) 
                                                              Everyone hates me... 
e|----------------------------|----------------------------|----------------------------| 
B|----------------------------|----------------------------|----------------------------| 
G|----------------------------|----------------------------|----------------------------| 
D|--5--5--5--5--5--5--5--5----|--5--5--5--5--5--5--5--5----|--5--5--5--5--5--5--5--5----| 
A|--3--3--3--3--3--3--3--3----|--3--3--3--3--3--3--3--3----|--3--3--3--3--3--3--3--3----| 
E|----------------------------|----------------------------|----------------------------| 


                                 Where did the time go... 
e|----------------------------|----------------------------|----------------------------| 
B|----------------------------|----------------------------|----------------------------| 
G|----------------------------|----------------------------|----------------------------| 
D|--5--5--5--5--5--5--5--5----|----------------------------|----------------------------| 
A|--3--3--3--3--3--3--3--3----|--5--5--5--5--5--5--5--5----|--5--5--5--5--5--5--5--5----| 
E|----------------------------|--3--3--3--3--3--3--3--3----|--3--3--3--3--3--3--3--3----| 


    Getting a ride slow...                                    Back at the club girl... 
e|----------------------------|----------------------------|----------------------------| 
B|----------------------------|----------------------------|----------------------------| 
G|----------------------------|----------------------------|----------------------------| 
D|----------------------------|----------------------------|----------------------------| 
A|--7--7--7--7--7--7--7--7----|--7--7--7--7--7--7--7--7----|--3--3--3--3--3--3--3--3----| 
E|--5--5--5--5--5--5--5--5----|--5--5--5--5--5--5--5--5----|--1--1--1--1--1--1--1--1----| 


e|----------------------------| 
B|----------------------------| 
G|----------------------------| 
D|----------------------------| 
A|--3--3--3--3--3--3--3--3----| 
E|--1--1--1--1--1--1--1--1----| x2 


Solo 

                              PM******************************************************** 
e|--------------10------------|----------------------------|----------------------------| 
B|--------------13b-----------|----------------------------|----------------------------| 
G|----------------------------|-----9-----9--9--9--9--9----|--9--9--9--9--9--12-9--12---| 
D|----------------------------|--10------------------------|----------------------------| 
A|----------------------------|----------------------------|----------------------------| 
E|----------------------------|----------------------------|----------------------------| 


  PM************************************************************************************ 
e|----------------------------|----------------------------|----------------------------| 
B|----------------------------|----------------------------|----------------------------| 
G|--12----12------------------|----------------------------|-----9-----9--9--9--9--9----| 
D|-----12----12-12-12-12-12---|--12-12-12-12-12-12-12-12---|--12----12------------------| 
A|----------------------------|----------------------------|----------------------------| 
E|----------------------------|----------------------------|----------------------------| 


  PM************************************************************************************ 
e|----------------------------|----------------------------|----------------------------| 
B|----------------------------|----------------------------|----------------------------| 
G|--9--9--9--9--9--9--9--9----|--9-----9-------------------|----------------------------| 
D|----------------------------|-----10----10-10-10-10-10---|--10-10-10-10-10-10-10-10---| 
A|----------------------------|----------------------------|----------------------------| 
E|----------------------------|----------------------------|----------------------------| 


************************************ 

| b  Bend 
| /  Slide up 
| PM Palm mute 

************************************ 
share this page

See Also: