E-Chords
Lil Flip

Back Back(Tabs)

Lil Flip

This is basically the whole beat thru the song 
very easy 
 
 
 
e--------------------------2-----------/  
b--4-4---------5-5---2-4-5---5-4-2--4--/ 
g--------1-1---------------------------/   
d--------------------------------------/   
a--------------------------------------/   
e--------------------------------------/ 
 
e--------------------------2-----------/  
b--4-4---------5-5---2-4-5---5-4-2--4--/ 
g--------1-1---------------------------/   
d--------------------------------------/   
a--------------------------------------/   
e--------------------------------------/ 
 
e--------------------------2-----------/  
b--4-4---------5-5---2-4-5---5-4-2--4--/ 
g--------1-1---------------------------/   
d--------------------------------------/   
a--------------------------------------/   
e--------------------------------------/ 
 
e--------------------------2-----------/  
b--4-4---------5-5---2-4-5---5-4-2--4--/ 
g--------1-1---------------------------/   
d--------------------------------------/   
a--------------------------------------/   
e--------------------------------------/ 
 
e--------------------------2-----------/  
b--4-4---------5-5---2-4-5---5-4-2--4--/ 
g--------1-1---------------------------/   
d--------------------------------------/   
a--------------------------------------/   
e--------------------------------------/ 

roll up this ad to continue

share this page

See Also: