E-Chords
Like Moths To Flames

Your Existence(Tabs)

Like Moths To Flames

Intro: 

e|-------|-----------------------------------------------------------| 
B|-------|-----------------------------------------------------------| 
G|-------|-----------------------------------------------------------| 
D|-------|-----------------------------------------------------------| 
A|-------|-000-000-0000-00--0000--0000--000-000-0000-00--0000---0000-| 
E|--3--0-|-111-111-1111-11--1111--1111--111-111-1111-11--1111---1111-| << Play Breakdown Twice 


Verse: 

e|----------------------------------------------------------------| 
B|----------------------------------------------------------------| 
G|----------------------------------------------------------------| 
D|----------------------------------------------------------------| 
A|--------------------------------------------------------0-4-2-1-| 
E|--0-0000-12-0-0000-0000-12h13p12~~0-0000-12-0-0000-0000-0-4-2-1-| << Play 4 Times 


Riff Before Breakdown: 

e|-----------------------------| 
B|-----------------------------| 
G|-----------------------------| 
D|-----------------------------| 
A|--0-0-0--0-0-0--0-0-0--0-0-0-| 
E|--1-1-1--1-1-1--1-1-1--1-1-1-| 

Breakdown: 

e|---------------------------------------------------| 
B|---------------------------------------------------| 
G|---------------------------------------------------| 
D|---------------------------------------------------| 
A|--0-0-0-0--000000-0-0-0--0-0-0-0-0--000000-0-0-0-0-| 
E|--1-1-1-1--111111-1-1-1--0-1-1-1-1--111111-1-1-1-0-| << Play Twice 


Verse: 

e|----------------------------------------------------------------| 
B|----------------------------------------------------------------| 
G|----------------------------------------------------------------| 
D|----------------------------------------------------------------| 
A|--------------------------------------------------------0-4-2-1-| 
E|--0-0000-12-0-0000-0000-12h13p12~~0-0000-12-0-0000-0000-0-4-2-1-| << Play 4 Times 

Bridge: 

E|----------------------------------------------------------------------| 
B|----------------------------------------------------------------------| 
G|----------------------------------------------------------------------| 
D|----------------------------------------------------------------------| 
A|--0000000000000000-3333333333333333-8888888888888888-5555555555555555-| 
E|--0000000000000000-3333333333333333-8888888888888888-5555555555555555-| 


Breakdown: 

e|--------+5---------------------| 
B|--------+5---------------------| 
G|--------+5---------------------| 
D|-------------------------------| 
A|--0--0-----0-0--000000--00-0-0-| 
E|--0--0-----0-0--000000--00-0-0-| << Play 4 Times 

Ending Breakdown: 

E|-----------------------------------------------------------| 
B|-----------------------------------------------------------| 
G|-----------------------------------------------------------| 
D|-----------------------------------------------------------| 
A|-----------------------------------------------------------| 
E|--0-0-0000-00000--0-000--0-0--0-0000-00000-00000-0-000-0-0-| << Play 4 Times 
 

roll up this ad to continue

share this page

See Also: