E-Chords
Libertad condicional

Maldito Entorno(Tabs)

Libertad condicional

roll up this ad to continue

Key: C
INTRO: sobre el punteo ---> C G A G 

6---------------------------------------------------------- 
5---------------------------------------------------------- 
4---------------------------------------------------------- 
3---------------------------------------------------------- 
2-----------------------10-8-8-8-10-10-10-10-10-10--------- 
1--(6-7-8)-8-8--8-8--7-7---------------------------7-7-7-10 

6---------------------------------------------------------- 
5---------------------------------------------------------- 
4---------------------------------------------------------- 
3---------------------------------------------------------- 
2------------------------10-8-8-8-10-10-10-10-10-10----10-8 
1--(6-7-8)-8-10--8-8--7-7---------------------------7-7---- 
C G Él salió decidido a busca D Lo que un día el entorno G A él le quito Ahora que ya no puede soñar Se dirige a otras tierras A volverla encontrar Siempre supo que ella era su amor Pero el paso del tiempo A olvidar no ayudo Siempre supo que ella era su amor Pero el paso del tiempo A olvidar no ayudo PUNTEO COMO INTRO Muchas contras tuvo que soportar Y ese fue el detonante Para que actuara mal Muchas tardes el se puso a pensar Lagrimas derramaba Sin ponerse a llorar Siempre supo que ella era su amor Pero el paso del tiempo A olvidar no ayudo Siempre supo que ella era su amor Pero el paso del tiempo A olvidar no ayudo FINAL COMO INTRO E INTERVALO GRACIAAAAAAAAASSSSSSSS POR TODOOOOOOO VISITEN WWW.LIBERTADCONDICIONAL.COM.AR
share this page

See Also: