E-Chords
Levante

Caos Preludio(Tabs)

Levante

roll up this ad to continue

Intro 

e|----------5-----------------5-----------------5-----------------5----------| 
B|----7--------7--------7--------7--------7--------7--------7--------7-------| 
G|-------6--------6--------6--------6--------6--------6--------6--------6----| 
D|---------------------------------------------------------------------------| 
A|-5-----------------5-----------------5-----------------5-------------------| 
E|---------------------------------------------------------------------------| 

e|----------------------------------------------------------0--------0-------| 
B|----------5-----------------5-----------------5--------7--------7----------| 
G|----4--6-----6--4-----4--6-----6--4-----4--6-----6--4-------6--------6-----| 
D|-6-----------------6-----------------6-------------------------------------| 
A|---------------------------------------------------------------------------| 
E|---------------------------------------------------------------------------| 


Chorus 

e|----------5-----------------5-----------------5-----------------5----------| 
B|----7--------7--------7--------7--------7--------7--------7--------7-------| 
G|-------6--------6--------6--------6--------6--------6--------6--------6----| 
D|---------------------------------------------------------------------------| 
A|-5-----------------5-----------------5-----------------5-------------------| 
E|---------------------------------------------------------------------------| 

e|---------------------------------------------------------------------------| 
B|----------5-----------------5-----------------5-----------------5----------| 
G|----4--6-----6--4-----4--6-----6--4-----4--6-----6--4-----4--6-----6--4----| 
D|-6-----------------6-----------------6-----------------6-------------------| 
A|---------------------------------------------------------------------------| 
E|---------------------------------------------------------------------------| 

e|----------5-----------------5-----------------5-----------------5----------| 
B|----7--------7--------7--------7--------7--------7--------7--------7-------| 
G|-------6--------6--------6--------6--------6--------6--------6--------6----| 
D|---------------------------------------------------------------------------| 
A|-5-----------------5-----------------5-----------------5-------------------| 
E|---------------------------------------------------------------------------| 

e|----------------------------------------------------------0--------0-------| 
B|----------5-----------------5-----------------5--------7--------7----------| 
G|----4--6-----6--4-----4--6-----6--4-----4--6-----6--4-------6--------6-----| 
D|-6-----------------6-----------------6-------------------------------------| 
A|---------------------------------------------------------------------------| 
E|---------------------------------------------------------------------------| 

Verse 

e|----------5-----------------5-----------------5-----------------5----------| 
B|----7--------7--------7--------7--------7--------7--------7--------7-------| 
G|-------6--------6--------6--------6--------6--------6--------6--------6----| 
D|---------------------------------------------------------------------------| 
A|-5-----------------5-----------------5-----------------5-------------------| 
E|---------------------------------------------------------------------------| 

e|---------------------------------------------------------------------------| 
B|----------5-----------------5-----------------5-----------------5----------| 
G|----4--6-----6--4-----4--6-----6--4-----4--6-----6--4-----4--6-----6--4----| 
D|-6-----------------6-----------------6-----------------6-------------------| 
A|---------------------------------------------------------------------------| 
E|---------------------------------------------------------------------------| 

e|----------5-----------------5-----------------5-----------------5----------| 
B|----7--------7--------7--------7--------7--------7--------7--------7-------| 
G|-------6--------6--------6--------6--------6--------6--------6--------6----| 
D|---------------------------------------------------------------------------| 
A|-5-----------------5-----------------5-----------------5-------------------| 
E|---------------------------------------------------------------------------| 

e|---------------------------------------------------------------------------| 
B|----------5-----------------5-----------------5----------------------------| 
G|----4--6-----6--4-----4--6-----6--4-----4--6-----6--4----------------------| 
D|-6-----------------6-----------------6-----------------6-------------------| 
A|---------------------------------------------------------------------------| 
E|---------------------------------------------------------------------------| 

Chorus 

e|----------5-----------------5-----------------5-----------------5----------| 
B|----7--------7--------7--------7--------7--------7--------7--------7-------| 
G|-------6--------6--------6--------6--------6--------6--------6--------6----| 
D|---------------------------------------------------------------------------| 
A|-5-----------------5-----------------5-----------------5-------------------| 
E|---------------------------------------------------------------------------| 

e|----------------------------------------------------------0--------0-------| 
B|----------5-----------------5-----------------5--------7--------7----------| 
G|----4--6-----6--4-----4--6-----6--4-----4--6-----6--4-------6--------6-----| 
D|-6-----------------6-----------------6-------------------------------------| 
A|---------------------------------------------------------------------------| 
E|---------------------------------------------------------------------------| 

e|----------5-----------------5-----------------5-----------------5----------| 
B|----7--------7--------7--------7--------7--------7--------7--------7-------| 
G|-------6--------6--------6--------6--------6--------6--------6--------6----| 
D|---------------------------------------------------------------------------| 
A|-5-----------------5-----------------5-----------------5-------------------| 
E|---------------------------------------------------------------------------| 

e|---------------------------------------------------------------------------| 
B|----------5----------------------------------------------------------------| 
G|----4--6-------------------------------------------------------------------| 
D|-6-------------------------------------------------------------------------| 
A|---------------------------------------------------------------------------| 
E|---------------------------------------------------------------------------| 

 
share this page

See Also: