E-Chords
Les Claypool And The Holy Mackerel

Running The Gauntlet(Tabs)

Les Claypool And The Holy Mackerel

Intro 
e|-x-----x----| 
B|-x-----x----| 
G|-x-----x----| 
D|-x-----x----| 
A|-x-----x----| 
E|-x-----x----| 

Whole song 
e|-----------------------| 
B|-----------------------| 
G|---5----3--------------| 
D|--4-4--2-2----3----3---| 
A|-5----3------2-2--2-3--| 
E|------------3----3-----| 

e|----------------------| 
B|----------------------| 
G|---5----3-------------| 
D|--4-4--2-2---3----3---| 
A|-5----3-----2-2--2-3--| 
E|-----------3----3-----| 

e|----------------------| 
B|----------------------| 
G|---5----8----3----6---| 
D|--4-4--7-7--2-2--5-5--| 
A|-5---/8----3---/6-----| 
E|----------------------| 

e|----------------------| 
B|----------------------| 
G|---5----3-------------| 
D|--4-4--2-2---3----3---| 
A|-5----3-----2-2---2---| 
E|-----------3----3-3---| 

roll up this ad to continue

share this page

See Also: