E-Chords
Les Claypool And The Holy Mackerel

Cohibas Esplenditos(Tabs)

Les Claypool And The Holy Mackerel

Chorus/Everything But Verse 
e|--5---5---5---5---5---5---5---5--| 
B|--5---5---5---5---5---5---5---5--| 
G|-(5)-(5)-(5)-(5)-(5)-(5)-(5)-(5)-| 
D|---------------------------------| 
A|---------------------------------| 
E|---------------------------------| 

Verse/Outro 
e|--3---3---3---3---3---3---3---3--| 
B|--3---3---3---3---3---3---3---3--| 
G|-(3)-(3)-(3)-(3)-(3)-(3)-(3)-(3)-| 
D|---------------------------------| 
A|---------------------------------| 
E|---------------------------------| 

roll up this ad to continue

share this page

See Also: