E-Chords
Lemonheads

Pittsburgh(Tabs)

Lemonheads

Key: G
Intro 
You must take out the strum 

|-10--8--8-7-5--5--5--3-----------------------------| 
|-8-------------------------3---2/5-----------------| 
|---------------------------------------------------| 
|-9---9--7-7-7--5--3--2--2--2-2-2-------------------| 
|-10--10-8-8-8--7--5--3--3--3-3-3/7-----------------| 
|---------------------------------------------------| 


Verses 

  G Em Bm Am  G/C 
|-3-----2------3------------------------------------| 
|-------3--1---3------------------------------------| 
|-------4--2---5------------------------------------| 
|----2--4--2---5------------------------------------| 
|-2--2--2------3------------------------------------| 
|-3------------3------------------------------------| 


Chorus 

|-10--8--8-7-5--5--5--3-----------------------------| 
|-8-------------------------3---2/5-----------------| 
|---------------------------------------------------| 
|-9---9--7-7-7--5--3--2--2--2-2-2-------------------| 
|-10--10-8-8-8--7--5--3--3--3-3-3/7-----------------| 
|---------------------------------------------------| 


Bridge 

  Am 
|------3---6----------------------------------------| 
|--1---3---6----------------------------------------| 
|--2---5---8----------------------------------------| 
|--2---5---8----------------------------------------| 
|------3---6----------------------------------------| 
|------3---6----------------------------------------| 

roll up this ad to continue

share this page

See Also: