E-Chords
Lee Ann Womack

I Feel Like I'm Forgetting Something(Tabs)

Lee Ann Womack

Key: Eb
	Brent Mason's first solo from LeAnn Womack's 
 
	   'I Feel like I'm forgetting something' 
 
 
 
 4/4   key of Eb - tuning Eb Ab Db Gb Bb Eb 
 
 
 
 
                            |-3-|       |-3-| 
         
|------------|---------7--|-------------------------| 
|------------|---------8--|---------5---------------| 
|------------|-2-2-5S9----|-8p7p5---5h6-2p0---------| 
|------5b6---|------------|-------7---------2p0-5b6-| 
|------------|------------|-------------------------| 
|------------|------------|-------------------------| 
              Ab 
 
 
|-------------------- 
|-------------------- 
|-------------------- 
|-2-----2------------ 
|---2h5---5-4p2------ 
|---------------0---- 
 Eb 
                             |-3-|  |-3-| 
|--------------------|--------------------| 
|--------------------|--------------------| 
|--------------------|--------------4---4-| 
|-----2--------------|----------4-6---6---| 
|------------------1-|-2--2-4S6-----------| 
|-2b4---2b4r2-0------|--------------------| 
                      Bb7 
 
                                                 
 
   |-3-|            {	   HOLD BEND      }			       
    
|------7----------------16----|-14----14----------- 
|----7---/12--14-14b16=====14-|----14----14-14r-12- 
|-/8--------------------------|-------------------- 
|-----------------------------|-------------------- 
|-----------------------------|-------------------- 
|-----------------------------|-------------------- 
 
 
                          |-3-| 
   
|-------|-------11----11----------| 
|----12-|-10-10-10b12-10----------| 
|-13----|----------------10S9p7---| 
|-------|-----------------------9-| 
|-------|-------------------------| 
|-------|-------------------------| 
 
 
                            |-3-| 
  
|-----------------|-------------------|----------| 
|-9-7---7S6-6S5-5-|-4-4S2-2-----------|----------| 
|-9-7h8-8S7-7S6-6-|-4-4S2-2-----------|----------| 
|-----------------|---------5p4p2-----|-2-----2--| 
|-----------------|---------------5b6-|---2h5----| 
|-----------------|-------------------|----------| 
                                        Eb 
 
 
|------------------------------------| 
|------------------------------------| 
|------------------------------------| 
|-5b6-2-----2---------2--------------| 
|-------5p2---5----------------------| 
|---------------0-2h3---2b4==2r-0----| 
 
 
 
transcribed by Twangman 

roll up this ad to continue

share this page

See Also: