Leandro e Leonardo

… por VocÍ que Canto(Tabs)

Leandro e Leonardo

Key: Am

roll up this ad to continue

	        Em           D          D             Em 
E|----------------------------------------------------| 
B|---------0-0----------------------------------------| 
G|-----0-0-----2--------------------2-2-0-------------| 
D|-2-2----------------------0-0-4-4-------------------| 
A|----------------------------------------------------| 
E|----------------------------------------------------| 

               C    G     G              C   G      G7 
E|-------------0-0-----------------------0-0----------| 
B|-----0-0-3-3------3------------0-0-3-3-----3--------| 
G|-0-0-----------------------0-0----------------------| 
D|----------------------------------------------------| 
A|----------------------------------------------------| 
E|----------------------------------------------------| 

       C                  G        G   D/F# Em D/F# G 
E|-----0-0------0-2-3-2-0------0----------------------| 
B|------------------------3------3-0------------------| 
G|-0-0----------------------------------2-0-----------| 
D|-----------------------------------------------2-0--| 
A|----------------------------------------------------| 
E|----------------------------------------------------| 

           D             Em 
E|----------------------------------------------------| 
B|---------3------------------------------------------| 
G|--0-0-0--------------0------------------------------| 
D|-------------------4---2----------------------------| 
A|----------------------------------------------------| 
E|----------------------------------------------------|
	        

Written by Paul Simon, Ercilia Gomes de Aguiar Viola, Joao Batista Viola

share this page

See Also: