E-Chords
La Logia

Cualquiera Funcionará(Tabs)

La Logia

roll up this ad to continue

Autor: Juancho (qdsg) 


...La canción tope... 
con decir: 'cualquiera funcionará' lo dice todo....... 
'y ese tiempo de más, voy a perderlo en un bar'... 
 ESTA CANCIÓN SIMPLEMENTE LLORA...COMO SI TUVIERA VIDA PROPIA NO??? 
(se olvidaron tambien de esta!) 

(*Escuchándo bien toda la canción parece una improvisación de arpegios 
sobre la mayor y sol mayor, casi ninguna parte es uniforme de la siguiente 
sobre todo en el coro. Pero, las tonalidades son las mismas, la clave, 
es no soltar el dedo índice del puente de la mayor y sol mayor,... 
con los otros dedos... 
solo tocá lo q escuches mirando esto y la canción saldrá.) 

INTRO:(effect: rythm light y tremolo light) 

---------------7-----7----|----------------------------- 
---------5-------5----5---|--------7-----7-----7-------- 
-----6-----6-------6----6-|-----6----6-----6-----6---6-- 
---7---7-----7------------|---7--7------7-----7-----7---- 
-7------------------------|-5--------------------------- 
--------------------------|----------------------------- 

VERSE: 
---------------7-----7----|------------------------------ 
---------5-------5----5---|-----------7-------7---------- 
-----6-----6-------6----6-|-----6-5h6----6-------6----6-- 
---7---7-----7------------|---7-------------7-------7---- 
-7------------------------|-5---------------------------- 
--------------------------|------------------------------ 

CORO1: 

-5-5---7-7-----7-3-3--5----5------ 
-5-5---5-5-----5-3-3-----3----3-3- 
-6-6---6-6-----6-4-4------4----4-- 
-7-7---5-5-----5-5-5-------------- 
-7-7-7-7-7-7-7-7-5-5-------------- 
-5-5-5-5-5-5-5-5-3-3-------------- 

-------------------------------------- 
--------5---5---5---------7---7---7--- 
----6----6---6---6-6----6--6---6---6-6 
--7---7---7---7---7----7-7--7---7---7- 
7---------------------5--------------- 
-------------------------------------- 

CORO2: 

-5-7-7----7------------5-----5----5----- 
-5-5--5----5-------3-----3-----3----3--- 
-6-6----6----6---4---4-----4-----4----4- 
-7-5-----------5------------------------ 
-7-7------------------------------------ 
-5-5------------------------------------ 

------------------------------------------------- 
-------5-----5-----5-------------7-----7-----7--- 
---6-----6-----6-----6---6----6---6-----6-----6-- 
--7--7-----7-----7-----7-----7-7----7-----7-----7 
7--------------------------5--------------------- 
------------------------------------------------- 

SOLUS:(overdrive high) 

-------------------------------------- 
-------------------------------------- 
------14-16-14-16-17/18ñ--19-18-19-18- 
-14/16ñ------------------------------- 
-------------------------------------- 
-------------------------------------- 

--------------------------------------- 
--------------------------------------- 
--------------------------------------- 
14-14h16ñ--12-11-12-11-7-7h9-7ñ---17-19 
--------------------------------------- 
--------------------------------------- 

------------------------------------ 
------------------------------------ 
---16-18-16-18-18b-19b-19-19b-19-18ñ 
------------------------------------ 
------------------------------------ 
------------------------------------ 

---------------------------------------------------- 
----------5/7-7/9-9/10-10-10h12-10p9-10p9-10-10ñ---- 
-16-14ñ--------------------------------------------- 
---------------------------------------------------- 
---------------------------------------------------- 
---------------------------------------------------- 
(intro mientras) 

CORO3: 

-5-7-7------------5---5---5--------------------------------------- 
-5-5--5--5---------3---3---3-3-----5----5---5---------7---7---7--- 
-6-6---6---6--------4---4---4----6-6-6---6---6-----6---6---6---6-6 
-7-5-----------5----------------7-7---7---7---7---7-7---7---7---7- 
-7-7----------5-5--------------5-----------------5---------------- 
-5-----------3---------------------------------------------------- 

CORO4: 

---------7---7--------5----5---5--------------------------------------- 
-----5----5---5--------3----3---3-------5----5---5---------7---7---7--- 
---6--6----6---6----4---4----4---4----6-6-6---6---6-----6---6---6---6-6 
--7-7--7-----------5-5--------------7--7---7---7---7---7-7---7---7---7- 
-7----------------5----------------5-----------------5----------------- 
----------------------------------------------------------------------- 

OUTRO: 
(igual q el coro4 hasta acabar)
share this page

See Also: