E-Chords
La Chata

Es Asi(Tabs)

La Chata

roll up this ad to continue

bue este es un alto tema 

de la chata rnr 

espero q le guste todos los temas q subi... 


intro: riff 1 


1)----------------------!---------------------! 
2)----------------------!---------------------! 
3)----------------------!---------------------! 
4)-5-3-5----------------!-5-3-----------------! 
5)-------5-3----3-------!-----5-3---3---------! 
6)------------5---------!----------5----------! 



bue en las estrofas ase 

este riff 

osea el rifff 2 es asi 


riff 2 


1)---------------------!----------------------! 
2)---------------------!----------------------! 
3)-9-7-9---------------!--9-7-----------------! 
4)-------9-7---7-------!------9-7----7--------! 
5)-----------9---------!-----------9----------! 
6)---------------------!----------------------! 


este es todo el tema 

despues repite el intro 

y vuelve al riff2 

gracias 
share this page

See Also: