E-Chords
Kyshera

Willing Prey(Tabs)

Kyshera

Key: Em
6/8 
Intro 

Eb|-14-------14-------14-------14-------14-------14-------14-------14---------|} 
Bb|----15-------15-------15-------15-------15-------15-------15-------15------| } 
Gb|-------16-------16-------16-------16-------16-------16-------16-------16---|  } x2 
Db|---------------------------------------------------------------------------|  } 
Ab|---------------------------------------------------------------------------| } 
Eb|---------------------------------------------------------------------------|} 

    Guitar 1 - Distorted 
    Em                                  Bm 
Eb|-------------------------------------------------2-------------------------| 
Bb|-------------0--------------------------------------3----------------------| 
Gb|----------------0--------------------4---4-4--4---------4------------------| 
Db|-2---2-2--2---------2----------------4---4-4--4---------4------------------| 
Ab|-2---2-2--2---------2----------------2---2-2--2---------2------------------| 
Eb|-0---0-0--0---------0------------------------------------------------------| 
  |                                                                           | 
  | Guitar 2 - Clean                                                          | 
Eb|-12-------12-------12-------12-------14-------14-------14-------14---------| 
Bb|----12-------12-------12-------12-------15-------15-------15-------15------| 
Gb|-------12-------12-------12-------12-------16-------16-------16-------16---| 
Db|---------------------------------------------------------------------------| 
Ab|---------------------------------------------------------------------------| 
Eb|---------------------------------------------------------------------------| 

    Guitar 1 - Distorted 
    Em                                  Bm                A   
Eb|----------------------------------------------------x----------------------| 
Bb|-------------0--------------------------------------x----2---0---0---------| 
Gb|----------------0--------------------4---4-4--4-----x----2---2---2---------| 
Db|-2---2-2--2---------2----------------4---4-4--4-----x----2---2---2---------| 
Ab|-2---2-2--2---------2----------------2---2-2--2----------0---0---0---------| 
Eb|-0---0-0--0---------0------------------------------------------------------| 
  |                                                                           | 
  | Guitar 2 - Clean                                                          | 
Eb|-12-------12-------12-------12-------14-------14-------12-------12---------| 
Bb|----12-------12-------12-------12-------15-------15-------14-------14------| 
Gb|-------12-------12-------12-------12-------16-------16-------14-------14---| 
Db|---------------------------------------------------------------------------| 
Ab|---------------------------------------------------------------------------| 
Eb|---------------------------------------------------------------------------| 

    Guitar 1 - Distorted 
    Em                                  Bm 
Eb|-------------------------------------------------2-------------------------| 
Bb|-------------0--------------------------------------3----------------------| 
Gb|----------------0--------------------4---4-4--4---------4------------------| 
Db|-2---2-2--2---------2----------------4---4-4--4---------4------------------| 
Ab|-2---2-2--2---------2----------------2---2-2--2---------2------------------| 
Eb|-0---0-0--0---------0------------------------------------------------------| 
  |                                                                           | 
  | Guitar 2 - Clean                                                          | 
Eb|-12-------12-------12-------12-------14-------14-------14-------14---------| 
Bb|----12-------12-------12-------12-------15-------15-------15-------15------| 
Gb|-------12-------12-------12-------12-------16-------16-------16-------16---| 
Db|---------------------------------------------------------------------------| 
Ab|---------------------------------------------------------------------------| 
Eb|---------------------------------------------------------------------------| 

    Guitar 1 - Distorted 
    Em                                   
Eb|---------------------------------------------------------------------------| 
Bb|-------------0-------------------------------------------------------------| 
Gb|----------------0----------------------------------------------------------| 
Db|-2---2-2--2---------2------------------------------------------------------| 
Ab|-2---2-2--2---------2------------------------------------------------------| 
Eb|-0---0-0--0---------0------------------------------------------------------| 
  |                                                                           | 
  | Guitar 2 - Clean                                                          | 
Eb|-12-------12-------12-------12---------------------------------------------| 
Bb|----12-------12-------12-------12------------------------------------------| 
Gb|-------12-------12-------12-------12---------------------------------------| 
Db|---------------------------------------------------------------------------| 
Ab|---------------------------------------------------------------------------| 
Eb|---------------------------------------------------------------------------| 

    Guitar 1 - Distorted 
    F#                  E5        G  F#                  E5        G               
Eb|---------------------------------------------------------------------------| 
Bb|---------------------------------------------------------------------------| 
Gb|---------------------------------------------------------------------------| 
Db|----------------x---------x----------------------x---------x---------------| 
Ab|-------4---4----x----2----x----5--------4---4----x----2----x----5----------| 
Eb|-0h2---2---2----x----0----x----3--0h2---2---2----x----0----x----3----------| 
  |                                                                           | 
  | Guitar 2 - Clean                                                          | 
Eb|-14-------14-------12----------15-14-------14-------12----------15---------| 
Bb|----14-------14-------14----14-------14-------14-------14----14------------| 
Gb|-------15-------15-------15-------------15-------15-------15---------------| 
Db|---------------------------------------------------------------------------| 
Ab|---------------------------------------------------------------------------| 
Eb|---------------------------------------------------------------------------| 

verse 1 - 'He attracts' 
    Bm               D               Em              G   
Eb|-2--2-2--2-2-0--0-0--0-0--0-0-0-0-0--0-0--0-0-0-0-0---0--0---0--0--0--0----| 
Bb|-3--3-3--3-3-3--3-7--7-7--7-8-7-7-8--8-8--8-8-8-8-8---8--8---8--8--8--8----| 
Gb|-4--4-4--4-4-4--4-7--7-7--7-7-7-7-0--0-0--0-0-0-0-0---0--0---0--0--0--0----| 
Db|-4--4-4--4-4-4--4-0--0-0--0-0-0-0-9--9-9--9-9-9-9-9---9--9---9--9--9--9----| 
Ab|-2--2-2--2-2-2--2-----------------7--7-7--7-7-7-7-10--10-10--10-10-10-10---| 
Eb|----------------------------------0--0-0--0-0-0-0--------------------------| 

    Bm               D               Em                G   
Eb|-2--2-2--2-2-0--0-0--0-0--0-0-0-0-0--0--0--0--0-0-0-10--10-10--10-10-10-10-| 
Bb|-3--3-3--3-3-3--3-7--7-7--7-8-7-7-8--8--8--8--8-8-8-10--10-10--10-10-10-10-| 
Gb|-4--4-4--4-4-4--4-7--7-7--7-7-7-7-11-11-11-11-9-9-9-0---0--0---0--0--0--0--| 
Db|-4--4-4--4-4-4--4-0--0-0--0-0-0-0-9--9--9--9--9-9-9-9---9--9---9--9--9--9--| 
Ab|-2--2-2--2-2-2--2-----------------7--7--7--7--7-7-7-10--10-10--10-10-10-10-| 
Eb|----------------------------------0--0--0--0--0-0-0------------------------| 

    Bm               D               Em              G   
Eb|-2--2-2--2-2-2--0-0--0-0--0-0-0-0-0--0-0--0-0-0-0-0---0--0---0--0--0--0----| 
Bb|-3--3-3--3-3-3--3-7--7-7--7-7-7-7-8--8-8--8-8-8-8-8---8--8---8--7--7--7----| 
Gb|-4--4-4--4-4-4--4-7--7-7--7-7-7-7-0--0-0--0-0-0-0-0---0--0---0--0--0--0----| 
Db|-4--4-4--4-4-4--4-0--0-0--0-0-0-0-9--9-9--9-9-9-9-9---9--9---9--9--9--9----| 
Ab|-2--2-2--2-2-2--2-----------------7--7-7--7-7-7-7-10--10-10--10-10-10-10---| 
Eb|----------------------------------0--0-0--0-0-0-0--------------------------| 

    Bm               D               Em                G   
Eb|-2--2-2--2-2-0--0-0--0-0--0-0-0-0-0--0--0--0--0-0-0-10--10-10--10-10-10-10-| 
Bb|-3--3-3--3-3-3--3-7--7-7--7-8-7-7-8--8--8--8--8-8-8-10--10-10--10-10-10-10-| 
Gb|-4--4-4--4-4-4--4-7--7-7--7-7-7-7-11-11-11-11-9-9-9-0---0--0---0--0--0--0--| 
Db|-4--4-4--4-4-4--4-0--0-0--0-0-0-0-9--9--9--9--9-9-9-9---9--9---9--9--9--9--| 
Ab|-2--2-2--2-2-2--2-----------------7--7--7--7--7-7-7-10--10-10--10-10-10-10-| 
Eb|----------------------------------0--0--0--0--0-0-0------------------------| 

Pre-Chorus - 'He's a law all of his own' 

    Guitar 1 - Clean 
    Bm            A             Bm            A 
Eb|-2--2-2--2-0-0-0--0-0--0-0-0-2--2-2--2-0-0-0--0-0--0-0-0-------------------| 
Bb|-3--3-3--3-3-3-0--0-0--2-2-2-3--3-3--3-3-3-0--0-0--2-2-2-------------------| 
Gb|-4--4-4--4-4-4-2--2-2--2-2-2-4--4-4--4-4-4-2--2-2--2-2-2-------------------| 
Db|-4--4-4--4-4-4-2--2-2--2-2-2-4--4-4--4-4-4-2--2-2--2-2-2-------------------| 
Ab|-2--2-2--2-2-2-0--0-0--0-0-0-2--2-2--2-2-2-0--0-0--0-0-0-------------------| 
Eb|---------------------------------------------------------------------------| 
  |                                                                           | 
  | Guitar 2 - Distorted                                                      | 
Eb|---------------------------------------------------------------------------| 
Bb|----------------------------------------------------0----------------------| 
Gb|-------------------------------------------------6----6--------------------| 
Db|----------------------------------------------7---------7------------------| 
Ab|-------------------------------------------0-------------------------------| 
Eb|---------------------------------------------------------------------------| 

Chorus 1 - 'But masquerade' 

Guitar 1 - Distorted 
    Em                                  Bm 
Eb|-------------------------------------------------2-------------------------| 
Bb|-------------0--------------------------------------3----------------------| 
Gb|----------------0--------------------4---4-4--4---------4------------------| 
Db|-2---2-2--2---------2----------------4---4-4--4---------4------------------| 
Ab|-2---2-2--2---------2----------------2---2-2--2---------2------------------| 
Eb|-0---0-0--0---------0------------------------------------------------------| 
  |                                                                           | 
  | Guitar 2 - Clean                                                          | 
Eb|-12-------12-------12-------12-------14-------14-------14-------14---------| 
Bb|----12-------12-------12-------12-------15-------15-------15-------15------| 
Gb|-------12-------12-------12-------12-------16-------16-------16-------16---| 
Db|---------------------------------------------------------------------------| 
Ab|---------------------------------------------------------------------------| 
Eb|---------------------------------------------------------------------------| 

    Guitar 1 - Distorted 
    Em                                  Bm                A   
Eb|----------------------------------------------------x----------------------| 
Bb|-------------0--------------------------------------x----2---0---0---------| 
Gb|----------------0--------------------4---4-4--4-----x----2---2---2---------| 
Db|-2---2-2--2---------2----------------4---4-4--4-----x----2---2---2---------| 
Ab|-2---2-2--2---------2----------------2---2-2--2----------0---0---0---------| 
Eb|-0---0-0--0---------0------------------------------------------------------| 
  |                                                                           | 
  | Guitar 2 - Clean                                                          | 
Eb|-12-------12-------12-------12-------14-------14-------12-------12---------| 
Bb|----12-------12-------12-------12-------15-------15-------14-------14------| 
Gb|-------12-------12-------12-------12-------16-------16-------14-------14---| 
Db|---------------------------------------------------------------------------| 
Ab|---------------------------------------------------------------------------| 
Eb|---------------------------------------------------------------------------| 

    Guitar 1 - Distorted 
    Em                                  Bm 
Eb|-------------------------------------------------2-------------------------| 
Bb|-------------0--------------------------------------3----------------------| 
Gb|----------------0--------------------4---4-4--4---------4------------------| 
Db|-2---2-2--2---------2----------------4---4-4--4---------4------------------| 
Ab|-2---2-2--2---------2----------------2---2-2--2---------2------------------| 
Eb|-0---0-0--0---------0------------------------------------------------------| 
  |                                                                           | 
  | Guitar 2 - Clean                                                          | 
Eb|-12-------12-------12-------12-------14-------14-------14-------14---------| 
Bb|----12-------12-------12-------12-------15-------15-------15-------15------| 
Gb|-------12-------12-------12-------12-------16-------16-------16-------16---| 
Db|---------------------------------------------------------------------------| 
Ab|---------------------------------------------------------------------------| 
Eb|---------------------------------------------------------------------------| 

    Guitar 1 - Distorted 
    Em                                  Bm                A   
Eb|----------------------------------------------------x----------------------| 
Bb|-------------0--------------------------------------x----2---0---0---------| 
Gb|----------------0--------------------4---4-4--4-----x----2---2---2---------| 
Db|-2---2-2--2---------2----------------4---4-4--4-----x----2---2---2---------| 
Ab|-2---2-2--2---------2----------------2---2-2--2----------0---0---0---------| 
Eb|-0---0-0--0---------0------------------------------------------------------| 
  |                                                                           | 
  | Guitar 2 - Clean                                                          | 
Eb|-12-------12-------12-------12-------14-------14-------12-------12---------| 
Bb|----12-------12-------12-------12-------15-------15-------14-------14------| 
Gb|-------12-------12-------12-------12-------16-------16-------14-------14---| 
Db|---------------------------------------------------------------------------| 
Ab|---------------------------------------------------------------------------| 
Eb|---------------------------------------------------------------------------| 

    Guitar 1 - Distorted 
    Em                                  Bm 
Eb|-------------------------------------------------2-------------------------| 
Bb|-------------0--------------------------------------3----------------------| 
Gb|----------------0--------------------4---4-4--4---------4------------------| 
Db|-2---2-2--2---------2----------------4---4-4--4---------4------------------| 
Ab|-2---2-2--2---------2----------------2---2-2--2---------2------------------| 
Eb|-0---0-0--0---------0------------------------------------------------------| 
  |                                                                           | 
  | Guitar 2 - Clean                                                          | 
Eb|-12-------12-------12-------12-------14-------14-------14-------14---------| 
Bb|----12-------12-------12-------12-------15-------15-------15-------15------| 
Gb|-------12-------12-------12-------12-------16-------16-------16-------16---| 
Db|---------------------------------------------------------------------------| 
Ab|---------------------------------------------------------------------------| 
Eb|---------------------------------------------------------------------------| 

    Guitar 1 - Distorted 
    Em                                  Bm                A   
Eb|----------------------------------------------------x----------------------| 
Bb|-------------0--------------------------------------x----2---0---0---------| 
Gb|----------------0--------------------4---4-4--4-----x----2---2---2---------| 
Db|-2---2-2--2---------2----------------4---4-4--4-----x----2---2---2---------| 
Ab|-2---2-2--2---------2----------------2---2-2--2----------0---0---0---------| 
Eb|-0---0-0--0---------0------------------------------------------------------| 
  |                                                                           | 
  | Guitar 2 - Clean                                                          | 
Eb|-12-------12-------12-------12-------14-------14-------12-------12---------| 
Bb|----12-------12-------12-------12-------15-------15-------14-------14------| 
Gb|-------12-------12-------12-------12-------16-------16-------14-------14---| 
Db|---------------------------------------------------------------------------| 
Ab|---------------------------------------------------------------------------| 
Eb|---------------------------------------------------------------------------| 

    Guitar 1 - Distorted 
    Em                                  Bm 
Eb|-------------------------------------------------2-------------------------| 
Bb|-------------0--------------------------------------3----------------------| 
Gb|----------------0--------------------4---4-4--4---------4------------------| 
Db|-2---2-2--2---------2----------------4---4-4--4---------4------------------| 
Ab|-2---2-2--2---------2----------------2---2-2--2---------2------------------| 
Eb|-0---0-0--0---------0------------------------------------------------------| 
  |                                                                           | 
  | Guitar 2 - Clean                                                          | 
Eb|-12-------12-------12-------12-------14-------14-------14-------14---------| 
Bb|----12-------12-------12-------12-------15-------15-------15-------15------| 
Gb|-------12-------12-------12-------12-------16-------16-------16-------16---| 
Db|---------------------------------------------------------------------------| 
Ab|---------------------------------------------------------------------------| 
Eb|---------------------------------------------------------------------------| 

    Guitar 1 - Distorted 
    Em                                   
Eb|---------------------------------------------------------------------------| 
Bb|-------------0-------------------------------------------------------------| 
Gb|----------------0----------------------------------------------------------| 
Db|-2---2-2--2---------2------------------------------------------------------| 
Ab|-2---2-2--2---------2------------------------------------------------------| 
Eb|-0---0-0--0---------0------------------------------------------------------| 
  |                                                                           | 
  | Guitar 2 - Clean                                                          | 
Eb|-12-------12-------12-------12---------------------------------------------| 
Bb|----12-------12-------12-------12------------------------------------------| 
Gb|-------12-------12-------12-------12---------------------------------------| 
Db|---------------------------------------------------------------------------| 
Ab|---------------------------------------------------------------------------| 
Eb|---------------------------------------------------------------------------| 

    Guitar 1 - Distorted 
    F#                  E5        G  F#                  E5        G               
Eb|---------------------------------------------------------------------------| 
Bb|---------------------------------------------------------------------------| 
Gb|---------------------------------------------------------------------------| 
Db|----------------x---------x----------------------x---------x---------------| 
Ab|-------4---4----x----2----x----5--------4---4----x----2----x----5----------| 
Eb|-0h2---2---2----x----0----x----3--0h2---2---2----x----0----x----3----------| 
  |                                                                           | 
  | Guitar 2 - Clean                                                          | 
Eb|-14-------14-------12----------15-14-------14-------12----------15---------| 
Bb|----14-------14-------14----14-------14-------14-------14----14------------| 
Gb|-------15-------15-------15-------------15-------15-------15---------------| 
Db|---------------------------------------------------------------------------| 
Ab|---------------------------------------------------------------------------| 
Eb|---------------------------------------------------------------------------| 

    Guitar 1 - Distorted           
Eb|-2-------------------------------------------------------------------------| 
Bb|-3-------------------------------------------------------------------------| 
Gb|-4------------------------------13b(16)------------------------------------| 
Db|-4-------------------------------------------------------------------------| 
Ab|-2--------------------------11---------------------------------------------| 
Eb|---------------------------------------------------------------------------| 
  |                                                                           | 
  | Guitar 2 - Clean                                                          | 
Eb|-14-------14-------14-------14---------------------------------------------| 
Bb|----15-------15-------15-------15------------------------------------------| 
Gb|-------16-------16-------16-------16---------------------------------------| 
Db|---------------------------------------------------------------------------| 
Ab|---------------------------------------------------------------------------| 
Eb|---------------------------------------------------------------------------| 

verse 2 - 'He will stop' 

    Guitar 1 - Clean with Tremolo pedal 
    Bm                              D 
Eb|-------------2-------------------------------0-----------------------------| 
Bb|-----------------3-----------------------3-------3-------------------------| 
Gb|---------4-----------4---------------2---------------2---------------------| 
Db|-----4---------------------------0-----------------------------------------| 
Ab|-2-------------------------------------------------------------------------| 
Eb|---------------------------------------------------------------------------| 
  |                                                                           | 
  | Guitar 2 - With filter effect                                             |  
Eb|---------------------------------------------------------------------------| 
Bb|-14b(15)br-0-12p0-14p0-12p0-10h12-14b(15)br-0-12p0-14p0-12p0-10h12---------| 
Gb|---------------------------------------------------------------------------| 
Db|---------------------------------------------------------------------------| 
Ab|---------------------------------------------------------------------------| 
Eb|---------------------------------------------------------------------------| 

    Guitar 1 - Clean with Tremolo pedal 
    Emadd9                           G 
Eb|-------------0--------------------------------3---2---0--------------------| 
Bb|-----------------3----------------------------3----------------------------| 
Gb|---------------------0-----------------------------------------------------| 
Db|---------4--------------------------------0--------------------------------| 
Ab|-----2--------------------------------2------------------------------------| 
Eb|-0--------------------------------3----------------------------------------| 
  |                                                                           | 
  | Guitar 2 - With filter effect                                             |  
Eb|---------------------------------------------------------------------------| 
Bb|-14b(15)br-0-12p0-14p0-12p0-10h12-14b(15)br-0-12p0-14p0-12p0-10h12---------| 
Gb|---------------------------------------------------------------------------| 
Db|---------------------------------------------------------------------------| 
Ab|---------------------------------------------------------------------------| 
Eb|---------------------------------------------------------------------------| 

    Guitar 1 - Clean with Tremolo pedal 
    Bm                              D 
Eb|-------------2-------------------------------0-----------------------------| 
Bb|-----------------3-----------------------3-------3-------------------------| 
Gb|---------4-----------4---------------2---------------2---------------------| 
Db|-----4---------------------------0-----------------------------------------| 
Ab|-2-------------------------------------------------------------------------| 
Eb|---------------------------------------------------------------------------| 
  |                                                                           | 
  | Guitar 2 - With filter effect                                             |  
Eb|---------------------------------------------------------------------------| 
Bb|-14b(15)br-0-12p0-14p0-12p0-10h12-14b(15)br-0-12p0-14p0-12p0-10h12---------| 
Gb|---------------------------------------------------------------------------| 
Db|---------------------------------------------------------------------------| 
Ab|---------------------------------------------------------------------------| 
Eb|---------------------------------------------------------------------------| 

    Guitar 1 - Clean with Tremolo pedal 
    Emadd9                           G 
Eb|-------------0--------------------3---3---3---3---3---3--------------------| 
Bb|-----------------3----------------3---3---3---3---3---3--------------------| 
Gb|---------------------0------------0---0---0---0---0---0--------------------| 
Db|---------4------------------------0---0---0---0---0---0--------------------| 
Ab|-----2----------------------------2---2---2---2---2---2--------------------| 
Eb|-0--------------------------------3---3---3---3---3---3--------------------| 
  |                                                                           | 
  | Guitar 2 - With filter effect                                             |  
Eb|---------------------------------------------------------------------------| 
Bb|-14b(15)br-0-12p0-14p0-12p0-10h12-14b(15)br-0-12p0-14p0-12p0-10h12---------| 
Gb|---------------------------------------------------------------------------| 
Db|---------------------------------------------------------------------------| 
Ab|---------------------------------------------------------------------------| 
Eb|---------------------------------------------------------------------------| 
  |                                                                           |  
  | Guitar 3 - Distorted                                                      |  
Eb|---------------------------------------------------------------------------| 
Bb|---------------------------------------------------------------------------| 
Gb|---------------------------------------------------------------------------| 
Db|----------------------------------7---7---7---7---7---7--------------------| 
Ab|----------------------------------5---5---5---5---5---5--------------------| 
Eb|----------------------------------3---3---3---3---3---3--------------------| 

Chorus 2 - 'But masquerade' 

Guitar 1 - Distorted 
    Em                                  Bm 
Eb|-------------------------------------------------2-------------------------| 
Bb|-------------0--------------------------------------3----------------------| 
Gb|----------------0--------------------4---4-4--4---------4------------------| 
Db|-2---2-2--2---------2----------------4---4-4--4---------4------------------| 
Ab|-2---2-2--2---------2----------------2---2-2--2---------2------------------| 
Eb|-0---0-0--0---------0------------------------------------------------------| 
  |                                                                           | 
  | Guitar 2 - Clean                                                          | 
Eb|-12-------12-------12-------12-------14-------14-------14-------14---------| 
Bb|----12-------12-------12-------12-------15-------15-------15-------15------| 
Gb|-------12-------12-------12-------12-------16-------16-------16-------16---| 
Db|---------------------------------------------------------------------------| 
Ab|---------------------------------------------------------------------------| 
Eb|---------------------------------------------------------------------------| 

    Guitar 1 - Distorted 
    Em                                  Bm                A   
Eb|----------------------------------------------------x----------------------| 
Bb|-------------0--------------------------------------x----2---0---0---------| 
Gb|----------------0--------------------4---4-4--4-----x----2---2---2---------| 
Db|-2---2-2--2---------2----------------4---4-4--4-----x----2---2---2---------| 
Ab|-2---2-2--2---------2----------------2---2-2--2----------0---0---0---------| 
Eb|-0---0-0--0---------0------------------------------------------------------| 
  |                                                                           | 
  | Guitar 2 - Clean                                                          | 
Eb|-12-------12-------12-------12-------14-------14-------12-------12---------| 
Bb|----12-------12-------12-------12-------15-------15-------14-------14------| 
Gb|-------12-------12-------12-------12-------16-------16-------14-------14---| 
Db|---------------------------------------------------------------------------| 
Ab|---------------------------------------------------------------------------| 
Eb|---------------------------------------------------------------------------| 

Guitar 1 - Distorted 
    Em                                  Bm 
Eb|-------------------------------------------------2-------------------------| 
Bb|-------------0--------------------------------------3----------------------| 
Gb|----------------0--------------------4---4-4--4---------4------------------| 
Db|-2---2-2--2---------2----------------4---4-4--4---------4------------------| 
Ab|-2---2-2--2---------2----------------2---2-2--2---------2------------------| 
Eb|-0---0-0--0---------0------------------------------------------------------| 
  |                                                                           | 
  | Guitar 2 - Clean                                                          | 
Eb|-12-------12-------12-------12-------14-------14-------14-------14---------| 
Bb|----12-------12-------12-------12-------15-------15-------15-------15------| 
Gb|-------12-------12-------12-------12-------16-------16-------16-------16---| 
Db|---------------------------------------------------------------------------| 
Ab|---------------------------------------------------------------------------| 
Eb|---------------------------------------------------------------------------| 

    Guitar 1 - Distorted 
    Em                                  Bm                A   
Eb|----------------------------------------------------x----------------------| 
Bb|-------------0--------------------------------------x----2---0---0---------| 
Gb|----------------0--------------------4---4-4--4-----x----2---2---2---------| 
Db|-2---2-2--2---------2----------------4---4-4--4-----x----2---2---2---------| 
Ab|-2---2-2--2---------2----------------2---2-2--2----------0---0---0---------| 
Eb|-0---0-0--0---------0------------------------------------------------------| 
  |                                                                           | 
  | Guitar 2 - Clean                                                          | 
Eb|-12-------12-------12-------12-------14-------14-------12-------12---------| 
Bb|----12-------12-------12-------12-------15-------15-------14-------14------| 
Gb|-------12-------12-------12-------12-------16-------16-------14-------14---| 
Db|---------------------------------------------------------------------------| 
Ab|---------------------------------------------------------------------------| 
Eb|---------------------------------------------------------------------------| 

Bridge - 'One crime' 
    G          Gb5        G          Gb5        A                        
Eb|----------------------------------------------------0------------0---------| 
Bb|------------------------------------------------------0------------0-------| 
Gb|-7--7-7-7-7-6--6-6-6-6-7--7-7-7-7-6--6-6-6-6------------6------------6-----| 
Db|---------------------------------------------7--7-7------------------------| 
Ab|-5--5-5-5-5-4--4-4-4-4-5--5-5-5-5-4--4-4-4-4-7--7-7-------7--7-7-----------| 
Eb|-3--3-3-3-3-3--3-3-3-3-3--3-3-3-3-3--3-3-3-3-5--5-5-------5--5-5-----------| 

    G          Gb5        G          Gb5        A                        
Eb|----------------------------------------------------0------------0---------| 
Bb|------------------------------------------------------0------------0-------| 
Gb|-7--7-7-7-7-6--6-6-6-6-7--7-7-7-7-6--6-6-6-6------------6------------6-----| 
Db|---------------------------------------------7--7-7------------------------| 
Ab|-5--5-5-5-5-4--4-4-4-4-5--5-5-5-5-4--4-4-4-4-7--7-7-------7--7-7-----------| 
Eb|-3--3-3-3-3-3--3-3-3-3-3--3-3-3-3-3--3-3-3-3-5--5-5-------5--5-5-----------| 

Solo **Over Chorus chords 
   
    Em                                  Bm 
Eb|---------------------------------------------------------------------------|} 
Bb|-15-15-15-15-15-15-14-14-14-14-12-12-17-17-17-15-15-15-14-14-14-12-12-12---| } 
Gb|---------------------------------------------------------------------------|  } 
Db|-12-12-12-12-12-12-11-11-11-11-9--9--14-14-14-12-12-12-11-11-11-9--9--9----|   } 
Ab|---------------------------------------------------------------------------|    } 
Eb|---------------------------------------------------------------------------|     } 
                                                                                     } x2 
    Em                                  Bm             A                             }   
Eb|---------------------------------------------------------------------------|     } 
Bb|-15-15-15-15-15-15-14-14-14-14-12-12-12-12-12-12-14------------------------|    } 
Gb|---------------------------------------------------------------------------|   } 
Db|-12-12-12-12-12-12-11-11-11-11-9--9--9--9--9--9--11------------------------|  } 
Ab|---------------------------------------------------------------------------| }  
Eb|---------------------------------------------------------------------------|} 

Pre-Chorus - 'He's stalking you all the time' 

Guitar 1 - Clean 
    Bm            A             Bm            A 
Eb|-2--2-2--2-0-0-0--0-0--0-0-0-2--2-2--2-0-0-0--0-0--0-0-0-------------------| 
Bb|-3--3-3--3-3-3-0--0-0--2-2-2-3--3-3--3-3-3-0--0-0--2-2-2-------------------| 
Gb|-4--4-4--4-4-4-2--2-2--2-2-2-4--4-4--4-4-4-2--2-2--2-2-2-------------------| 
Db|-4--4-4--4-4-4-2--2-2--2-2-2-4--4-4--4-4-4-2--2-2--2-2-2-------------------| 
Ab|-2--2-2--2-2-2-0--0-0--0-0-0-2--2-2--2-2-2-0--0-0--0-0-0-------------------| 
Eb|---------------------------------------------------------------------------| 
  |                                                                           | 
  | Guitar 2 - Distorted                                                      | 
Eb|---------------------------------------------------------------------------| 
Bb|---------------------------------------------------------------------------| 
Gb|------------------------------------7------------------/19b(23)------------| 
Db|---------------------------------11---11---7-7-7-7-7-7---------------------| 
Ab|-------------------------------9---------9-7-7-7-7-7-7---------------------| 
Eb|-----------------------------7-------------5-5-5-5-5-5---------------------| 

Chorus 3 - 'But masquerade' 

Guitar 1 - Distorted 
    Em                                  Bm 
Eb|-------------------------------------------------2-------------------------| 
Bb|-------------0--------------------------------------3----------------------| 
Gb|----------------0--------------------4---4-4--4---------4------------------| 
Db|-2---2-2--2---------2----------------4---4-4--4---------4------------------| 
Ab|-2---2-2--2---------2----------------2---2-2--2---------2------------------| 
Eb|-0---0-0--0---------0------------------------------------------------------| 
  |                                                                           | 
  | Guitar 2 - Clean                                                          | 
Eb|-12-------12-------12-------12-------14-------14-------14-------14---------| 
Bb|----12-------12-------12-------12-------15-------15-------15-------15------| 
Gb|-------12-------12-------12-------12-------16-------16-------16-------16---| 
Db|---------------------------------------------------------------------------| 
Ab|---------------------------------------------------------------------------| 
Eb|---------------------------------------------------------------------------| 

    Guitar 1 - Distorted 
    Em                                  Bm                A   
Eb|----------------------------------------------------x----------------------| 
Bb|-------------0--------------------------------------x----2---0---0---------| 
Gb|----------------0--------------------4---4-4--4-----x----2---2---2---------| 
Db|-2---2-2--2---------2----------------4---4-4--4-----x----2---2---2---------| 
Ab|-2---2-2--2---------2----------------2---2-2--2----------0---0---0---------| 
Eb|-0---0-0--0---------0------------------------------------------------------| 
  |                                                                           | 
  | Guitar 2 - Clean                                                          | 
Eb|-12-------12-------12-------12-------14-------14-------12-------12---------| 
Bb|----12-------12-------12-------12-------15-------15-------14-------14------| 
Gb|-------12-------12-------12-------12-------16-------16-------14-------14---| 
Db|---------------------------------------------------------------------------| 
Ab|---------------------------------------------------------------------------| 
Eb|---------------------------------------------------------------------------| 

    Guitar 1 - Distorted 
    Em                                  Bm 
Eb|-------------------------------------------------2-------------------------| 
Bb|-------------0--------------------------------------3----------------------| 
Gb|----------------0--------------------4---4-4--4---------4------------------| 
Db|-2---2-2--2---------2----------------4---4-4--4---------4------------------| 
Ab|-2---2-2--2---------2----------------2---2-2--2---------2------------------| 
Eb|-0---0-0--0---------0------------------------------------------------------| 
  |                                                                           | 
  | Guitar 2 - Clean                                                          | 
Eb|-12-------12-------12-------12-------14-------14-------14-------14---------| 
Bb|----12-------12-------12-------12-------15-------15-------15-------15------| 
Gb|-------12-------12-------12-------12-------16-------16-------16-------16---| 
Db|---------------------------------------------------------------------------| 
Ab|---------------------------------------------------------------------------| 
Eb|---------------------------------------------------------------------------| 

    Guitar 1 - Distorted 
    Em                                  Bm                A   
Eb|----------------------------------------------------x----------------------| 
Bb|-------------0--------------------------------------x----2---0---0---------| 
Gb|----------------0--------------------4---4-4--4-----x----2---2---2---------| 
Db|-2---2-2--2---------2----------------4---4-4--4-----x----2---2---2---------| 
Ab|-2---2-2--2---------2----------------2---2-2--2----------0---0---0---------| 
Eb|-0---0-0--0---------0------------------------------------------------------| 
  |                                                                           | 
  | Guitar 2 - Clean                                                          | 
Eb|-12-------12-------12-------12-------14-------14-------12-------12---------| 
Bb|----12-------12-------12-------12-------15-------15-------14-------14------| 
Gb|-------12-------12-------12-------12-------16-------16-------14-------14---| 
Db|---------------------------------------------------------------------------| 
Ab|---------------------------------------------------------------------------| 
Eb|---------------------------------------------------------------------------| 

    Guitar 1 - Distorted 
    Em                                  Bm 
Eb|-------------------------------------------------2-------------------------| 
Bb|-------------0--------------------------------------3----------------------| 
Gb|----------------0--------------------4---4-4--4---------4------------------| 
Db|-2---2-2--2---------2----------------4---4-4--4---------4------------------| 
Ab|-2---2-2--2---------2----------------2---2-2--2---------2------------------| 
Eb|-0---0-0--0---------0------------------------------------------------------| 
  |                                                                           | 
  | Guitar 2 - Clean                                                          | 
Eb|-12-------12-------12-------12-------14-------14-------14-------14---------| 
Bb|----12-------12-------12-------12-------15-------15-------15-------15------| 
Gb|-------12-------12-------12-------12-------16-------16-------16-------16---| 
Db|---------------------------------------------------------------------------| 
Ab|---------------------------------------------------------------------------| 
Eb|---------------------------------------------------------------------------| 

    Guitar 1 - Distorted 
    Em                                  Bm                A   
Eb|----------------------------------------------------x----------------------| 
Bb|-------------0--------------------------------------x----2---0---0---------| 
Gb|----------------0--------------------4---4-4--4-----x----2---2---2---------| 
Db|-2---2-2--2---------2----------------4---4-4--4-----x----2---2---2---------| 
Ab|-2---2-2--2---------2----------------2---2-2--2----------0---0---0---------| 
Eb|-0---0-0--0---------0------------------------------------------------------| 
  |                                                                           | 
  | Guitar 2 - Clean                                                          | 
Eb|-12-------12-------12-------12-------14-------14-------12-------12---------| 
Bb|----12-------12-------12-------12-------15-------15-------14-------14------| 
Gb|-------12-------12-------12-------12-------16-------16-------14-------14---| 
Db|---------------------------------------------------------------------------| 
Ab|---------------------------------------------------------------------------| 
Eb|---------------------------------------------------------------------------| 

    Guitar 1 - Distorted 
    Em                                  Bm 
Eb|-------------------------------------------------2-------------------------| 
Bb|-------------0--------------------------------------3----------------------| 
Gb|----------------0--------------------4---4-4--4---------4------------------| 
Db|-2---2-2--2---------2----------------4---4-4--4---------4------------------| 
Ab|-2---2-2--2---------2----------------2---2-2--2---------2------------------| 
Eb|-0---0-0--0---------0------------------------------------------------------| 
  |                                                                           | 
  | Guitar 2 - Clean                                                          | 
Eb|-12-------12-------12-------12-------14-------14-------14-------14---------| 
Bb|----12-------12-------12-------12-------15-------15-------15-------15------| 
Gb|-------12-------12-------12-------12-------16-------16-------16-------16---| 
Db|---------------------------------------------------------------------------| 
Ab|---------------------------------------------------------------------------| 
Eb|---------------------------------------------------------------------------| 

    Guitar 1 - Distorted 
    Em                                   
Eb|---------------------------------------------------------------------------| 
Bb|-------------0-------------------------------------------------------------| 
Gb|----------------0----------------------------------------------------------| 
Db|-2---2-2--2---------2------------------------------------------------------| 
Ab|-2---2-2--2---------2------------------------------------------------------| 
Eb|-0---0-0--0---------0------------------------------------------------------| 
  |                                                                           | 
  | Guitar 2 - Clean                                                          | 
Eb|-12-------12-------12-------12---------------------------------------------| 
Bb|----12-------12-------12-------12------------------------------------------| 
Gb|-------12-------12-------12-------12---------------------------------------| 
Db|---------------------------------------------------------------------------| 
Ab|---------------------------------------------------------------------------| 
Eb|---------------------------------------------------------------------------| 

    Guitar 1 - Distorted 
    F#                  E5        G  F#                  E5        G               
Eb|---------------------------------------------------------------------------| 
Bb|---------------------------------------------------------------------------| 
Gb|---------------------------------------------------------------------------| 
Db|----------------x---------x----------------------x---------x---------------| 
Ab|-------4---4----x----2----x----5--------4---4----x----2----x----5----------| 
Eb|-0h2---2---2----x----0----x----3--0h2---2---2----x----0----x----3----------| 
  |                                                                           | 
  | Guitar 2 - Clean                                                          | 
Eb|-14-------14-------12----------15-14-------14-------12----------15---------| 
Bb|----14-------14-------14----14-------14-------14-------14----14------------| 
Gb|-------15-------15-------15-------------15-------15-------15---------------| 
Db|---------------------------------------------------------------------------| 
Ab|---------------------------------------------------------------------------| 
Eb|---------------------------------------------------------------------------| 

    Guitar 1 - Distorted 
    F#                  E5        G  F#                  E5        G               
Eb|---------------------------------------------------------------------------| 
Bb|---------------------------------------------------------------------------| 
Gb|---------------------------------------------------------------------------| 
Db|----------------x---------x----------------------x---------x---------------| 
Ab|-------4---4----x----2----x----5--------4---4----x----2----x----5----------| 
Eb|-0h2---2---2----x----0----x----3--0h2---2---2----x----0----x----3----------| 
  |                                                                           | 
  | Guitar 2 - Clean                                                          | 
Eb|-14-------14-------12----------15-14-------14-------12----------15---------| 
Bb|----14-------14-------14----14-------14-------14-------14----14------------| 
Gb|-------15-------15-------15-------------15-------15-------15---------------| 
Db|---------------------------------------------------------------------------| 
Ab|---------------------------------------------------------------------------| 
Eb|---------------------------------------------------------------------------| 

End 
    Bm 
Eb|-2-------------------------------------------------------------------------| 
Bb|-3-------------------------------------------------------------------------| 
Gb|-4-------------------------------------------------------------------------| 
Db|-4-------------------------------------------------------------------------| 
Ab|-2-------------------------------------------------------------------------| 
Eb|---------------------------------------------------------------------------| 


************************************ 

| x   Dead note 
| h   Hammer-on 
| p   Pull-off 
| b   Bend 
| br  Bend release 
| /   Slide up 
| \   Slide down 

************************************ 

roll up this ad to continue

share this page

See Also: