E-Chords
Kyle Justin

Angry Video Game Theme Song(Tabs)

Kyle Justin

roll up this ad to continue

Intro 

    n  n       n   n      n   n        n     n      n 
e|------------------------------------------------------------------------------------| 
B|------------------------------------------------------------------------------------| 
G|------------------------------------------------------------------------------------| 
D|------------------------------------------------------------------------------------| 
A|--3---3-------6---6------5---5-------10----10----10---------------------------------| 
E|--1---1-------4---4------3---3-------8-----8-----8----------------------------------| 

    n   n  n    v   n       n   n   n   v   n 
e|--------------------------------------------------------------------------------------| 
B|--------------------------------------------------------------------------------------| 
G|--------------------------8---8---8---8---8-------------------------------------------| 
D|--------------------------6---6---6---6---6-------------------------------------------| 
A|--6---6---6---6---6-------------------------------------------------------------------| 
E|--4---4---4---4---4-------------------------------------------------------------------| 

    n    n        n   n       n   n   n  v    n   v 
e|-----------------------------------------------------------------------------------| 
B|-----------------------------------------------------------------------------------| 
G|-----------------------------------------------------------------------------------| 
D|--10---10-------8---8-------6---6---6---6---6---6----------------------------------| 
A|--8----8--------6---6-------4---4---4---4---4---4----------------------------------| 
E|-----------------------------------------------------------------------------------| 

    n   n       n   n       n    n  n      n  v  n   v 
e|---------------------------------------------------------------------------------------| 
B|---------------------------------------------------------------------------------------| 
G|--------------8---8-------6----6--6------6--6--6---6-----------------------------------| 
D|--------------6---6-------4----4--4------4--4--4---4-----------------------------------| 
A|--6---6--------------------------------------------------------------------------------| 
E|--4---4--------------------------------------------------------------------------------| 

*************************** 
n= Down Strum 
v= Up Strum 
*************************** 
share this page

See Also: