E-Chords
kurtis blow

The Breaks(Tabs)

kurtis blow

roll up this ad to continue

acordes 


-10-  -9-  -7-   -10-   -12-| 
-7--  -7-  -7-   -8--   -10-| 
-7--  -7-  -7-   -9--   -11-| 
----  ---  ---   ----   ----| 
----  ---  ---   ----   ----| 
----  ---  ---   ----   ----| 


riff : 

-10--10-10---10-10-9--7---10--10-10---10--12-12-| 
-7---7--7----7--7--7--7---7---7--7----8---10-10-| 
-7---7--7----7--7--7--7---7---7--7----9---11-11-| 
------------------------------------------------| 
------------------------------------------------| 
------------------------------------------------| 


-10--10-10---10-10-9--7---10--10-10---10--12-12-| 
-7---7--7----7--7--7--7---7---7--7----8---10-10-| 
-7---7--7----7--7--7--7---7---7--7----9---11-11-| 
------------------------------------------------| 
------------------------------------------------| 
------------------------------------------------| 


pre-bridge : 

-10----12-12---10-10-9-7--12--------------------| 
-8-----10-10---7--7--7-7--10--------------------| 
-9-----11-11---7--7--7-7--11--------------------| 
------------------------------------------------| 
------------------------------------------------| 
------------------------------------------------| 
share this page

See Also: