E-Chords
Kristin Hersh

Faith(Tabs)

Kristin Hersh

Key: E
FAITH 

album version - SKY MOTEL 
____________________________________ 
____________________________________ 

____________________________________ 
____________________________________ 

  E              A                  F/C 
e------------------------------------------------------ 
b------------------------------------------------------ 
g----------------------2-----2-2-----------2-----2-2--- 
d-----2-----2-2------2---2-0-------------3---3-0------- 
a---2---2-0--------0-------------------3--------------- 
e-0---------------------------------------------------- 

  E                 A                  F/C   
e------------------------------------------------------ 
b------------------------------------------------------ 
g----------------------2-----2-0-----------2-----2-0--- 
d-----2-----2-0------2---2-0-------------3---3-0------- 
a---2---2-0--------0-------------------3--------------- 
e-0---------------------------------------------------- 
___________________________________________________ 

E E E E 

E         E         E   E 
  Was it me, or the cold 
E      E           E 
  Made you give up hope? 
E          A         A            E         E  F 
  Made you lose your faith in the afterlife 
F              E     E 
  And all she made? 
_________________________________________________________________ 

E E E E  
E E E E  
A A E E*  
F F E E 

guitar.2: 
e----------------------------------------------------------------------- 
b-----------------------------------------------------------1---3-1--0-- 
g-----------1---1------------------1h2-2---2--2-1-1------2-------------- 
d-2----0-2--------2----------------------------------2------------------ 
a---------------------2---2/5/7----------------------------------------- 
e----------------------------------------------------------------------- 
_______________________________________________________________________ 

E        E          E    E   
  Was it me, or the heat 
E      E         E       
  Made you not believe? 
E          A           A*  E E* F 
  Made you lose your faith 
F*               E  
  In all that breathes? 
_____________________________________ 

outro: 
e----- 
b----- 
g----- 
d----- 
a----- 
e--0-- 

_____________________________________________________________________________________ 
_____________________________________________________________________________________ 

On SKY MOTEL after Faith there is a little untitled piano piece that closes out the record. 
An unlisted track 13. Included here is a version of it for playing on guitar: 

e---------------12-10-------------------------12----------10-9---- 
b---------------------12-----------------12--------------------10- 
g--------9----------------------7-9---------9--------------------- 
d-9----9---9------------------9-----9-------------9--7------------ 
a----7----------------------7------------------------0------------ 
e----------------------------------------------------------------- 

e-----------------------10-8------------------ 
b--------------------13----------------9-10-9- 
g----9---------10---------------------9------- 
d------9----9------10---------------9--------- 
a--7--------------------------8--7------------ 
e--------------------------------------------- 

roll up this ad to continue

share this page

See Also: