E-Chords
Kraftklub

Ritalinmedikinet(Tabs)

Kraftklub

roll up this ad to continue

Key: D
Intro 
e|-------------------| 
B|-------------------| 
G|----7--5-----7--10-| 
D|-7--7--5--7--7--10-| 
A|-7--5--3--7--5--8--| 
E|-5--------5--------| 

Riff 
e|---------------------------------------------------| 
B|---------------------------------------------------| 
G|---------------------------------------------------| 
D|-7-5-----------7-----------7-----------7-----------| 
A|-----7-9---7-----7-9---------7-9---7-----7-9-------| 
E|---------8---5-------8-7-5-------8---5-------8-7-5-| 

End Verse1 
e|------------------| 
B|------------------| 
G|-7-7-7-7-9--9-7---| 
D|-7-7-7-7-9--9-7-7-| 
A|-5-5-5-5-7--7-5-7-| 
E|----------------5-| 

Verse2           'A zu dem D zu dem H zu dem S' 
e|---------------| |------------| 
B|---------------| |------------| 
G|----------9-9--| |-10-10----8-| 
D|--7-7-----9-9--| |-10-10-10-8-| 
A|--7-7-----7-7--| |-8--8--10-6-| 
E|--5-5----------| |-------8----| 

Chorus 
e|---------------------------------------------------------| 
B|---------------------------------------------------------| 
G|-----------------------------7-7-7-7-7-7-7-5-5-5-5-5-5-5-| 
D|-7-7-7-7-7-7-7-7-7-7-7-7-7-7-7-7-7-7-7-7-7-5-5-5-5-5-5-5-| 
A|-7-7-7-7-7-7-7-7-7-7-7-7-7-7-5-5-5-5-5-5-5-3-3-3-3-3-3-3-| 
E|-5-5-5-5-5-5-5-5-5-5-5-5-5-5-----------------------------|x2 (Guitar 2 plays Riff meanwhile) 

e|---------------------------------------------------------| 
B|---------------------------------------------------------| 
G|---------------7-7-7-7-7-7-7-5-5-5-5-5-5-5-7-7-7-7-7-7-7-| 
D|-7-7-7-7-7-7-7-7-7-7-7-7-7-7-5-5-5-5-5-5-5-7-7-7-7-7-7-7-| 
A|-7-7-7-7-7-7-7-5-5-5-5-5-5-5-3-3-3-3-3-3-3-5-5-5-5-5-5-5-| 
E|-5-5-5-5-5-5-5-------------------------------------------|x2 

Bridge 
e|------------------------------|  |-------------------------| 
B|------------------------------|  |-------------------------| 
G|------------------------------|  |-------------------------| 
D|------------------------------|  |-------------------------| 
A|-------------3-5-5-3-5-7-5-3--|  |-8-8-8-3-3-3-6-6-6-------| 
E|--5-5-3-5-5-------------------|x3|-------------------6-6-6-| 
share this page

See Also: