E-Chords
Kraftklub

Melancholie(Tabs)

Kraftklub

roll up this ad to continue


Guitar 1 Main Riff      (Intro + Verse) 
|------------------------------------------------------| 
|------------------------------------------------------| 
|------------------------------------------------------| 
|---------7-----------------------10-------------------| 
|-------------7--6--5--------8------------10-----------| 
|-----5--------------------------------8---------------| 

Guitar 2                (Intro + Verse) 
Palm muted 
|------------------------------------------------------| 
|------------------------------------------------------| 
|------------------------------------------------------| 
|------7-----------------------------------------------| 
|------7-----------------------------------------------| 
|------5-----------------------------------------------| 




Guitar 1                (Chorus) 
|------------------------------------------------------| 
|------------------------------------------------------| 
|------------------------------------------------------| 
|---------------7--------------------------------------| 
|-----------------7--6--5--5--5-----8--8--8------------| 
|----5--5--5-------------------------------------------| 



Guitar 2                (Chorus) 
|-------------------------------------------------------------| 
|-------------------------------------------------------------| 
|---------------------------------7--7--7-----10--10--10------| 
|----7--7--7------7--7--7---------7--7--7-----10--10--10------| 
|----7--7--7------7--7--7---------5--5--5-----8----8---8------| 
|----5--5--5------5--5--5-------------------------------------| 

Guitar 1                (Bridge) 
|-------------------------------------------------------------| 
|-------------------------------------------------------------| 
|-------------------------------------------------------------| 
|-------------------------------------------------------------| 
|---7--10--7--10--7--10 --7----7--10--7----10--9--8-----------| 
|-------------------------------------------------------------| 

Guitar 2  
|-------------------------------------------------------------| 
|-------------------------------------------------------------| 
|-------------------------------------------------------------| 
|-------7--------12--10---9-----------------------------------| 
|-------7--------12--10---9-----------------------------------| 
|-------5--------10---8---7-----------------------------------| 


Intro 
Verse 
Chorus 
Verse 
Chorus 
Bridge 
Chorus 
share this page

See Also: