E-Chords
Kraftklub

Mein Leben(Tabs)

Kraftklub

roll up this ad to continue

Key: E

E|-----------------------------------------------------------------| 
B|-----------------------------------------------------------------| 
G|-----------------------------------------------------------------| 
D|-----------------------------------------------------------------| 
A|-------------------------------------------------7---7---7---7---| 
E|-5---5---5---5---5---5---5---5---8---8---8---8-------------------| 

E|-----------------------------------------------------------------| 
B|-----------------------------------------------------------------| 
G|-----------------------------------------------------------------| 
D|-----------------------------------------------------------------| 
A|-----------------------------------------------------------------| 
E|-3---3---3---3---3---3---3---3---5---5---5---5---0---0---0---0---| 

E|-----------------------------------------------------------------| 
B|-----------------------------------------------------------------| 
G|-----------------------------------------------------------------| 
D|-----------------------------------------------------------------| 
A|-------------------------------------------------7---7---7---7---| 
E|-5---5---5---5---5---5---5---5---8---8---8---8-------------------| 

E|-----------------------------------------------------------------| 
B|-----------------------------------------------------------------| 
G|-----------------------------------------------------------------| 
D|-----------------------------------------------------------------| 
A|-10--10--10--10--10--10--10--10--11--11----------7---7-----------| 
E|-----------------------------------------------------------------| 

Strophe: 
wiederholen bis Refrain, beim letzten Mal das E (7. Bund) ausklingen lassen 

E|-----------------------------------------------------------------| 
B|-----------------------------------------------------------------| 
G|-----------------------------------------------------------------| 
D|-----------------------------------------------------------------| 
A|-7-------7-------7-------7--7--7-6-------6-------6-------6--6--6-| 
E|-5-------5-------5-------5--5--5-4-------4-------4-------4--4--4-| 

E|-----------------------------------------------------------------| 
B|-----------------------------------------------------------------| 
G|-----------------------------------------------------------------| 
D|---------------------------------9----9----9-----8----8----8-----| 
A|10------10------10------10-10-10-7----7----7-----6----6----6-----| 
E|-8-------8-------8-------8--8--8---------------------------------| 

Refrain: 
E|-----------------------------------------------------------------| 
B|-----------------------------------------------------------------| 
G|-----------------------------------------------------------------| 
D|---------------------------------5---5---5---5---5---5---5---5---| 
A|-7---7---7---7---7---7---7---7---3---3---3---3---3---3---3---3---| 
E|-5---5---5---5---5---5---5---5-----------------------------------| 
          'Mein Leben ist nicht    cool...' 

E|-----------------------------------------------------------------| 
B|-----------------------------------------------------------------| 
G|-----------------------------------------------------------------| 
D|---------------------------------7---7---7---7---7---7---7---7---| 
A|-3---3---3---3---3---3---3---3---5---5---5---5---5---5---5---5---| 
E|-1---1---1---1---1---1---1---1-----------------------------------| 
'...Arschloch.                     Yeah!           Yeah!' 


 
share this page

See Also: