E-Chords
Kraftklub

Juppe(Tabs)

Kraftklub

roll up this ad to continue

Intro 
e------------------------| 
B------------------------| 
G------------------------| 
D------------------------| 
A------------3--3-5-5-5--| 
E-0-3-4-5--5-------------| (x6) 

Verse 
 Die Leute halten mich für ignorant und haben damit Recht. 
e------------------------| 
B------------------------| 
G------------------------| 
D------------------------| 
A------------------------| 
E-0-3-4-5--5-------------| 

 Seh' ich die Ungerechtigkeit auf dieser Welt geht es mir gut! 
e------------------------| 
B------------------------| 
G------------------------| 
D------------------------| 
A------------------------| 
E-0-3-4-5--5-------------| 

 Keine Trauer, keine Angst. Und auch keine Wut. 
e------------------------| 
B------------------------| 
G------------------------| 
D------------------------| 
A------------------------| 
E-5-5-5-5-3-5-5----------| 

 Manchmal guck ich meinem Wasser einfach so beim Laufen zu. 
e-----------------------------------------------| 
B-----------------------------------------------| 
G-----------------------------------------------| 
D-----------------------------------------------| 
A-----------------------------------------------| 
E-0-3-4-5-5-5-5-5-5-5-5-17-17-17-17-17-17-17-17-| 

Chorus 
Es ist mir Juppe! 
e----------------------------------------| 
B----------------------------------------| 
G------------------5-5---X-7-7-7---7-7-7-| 
D----------7-7---X-5-5---X-7-7-7---7-7-7-| 
A----------7-7---X-3-3---X-5-5-5---5-5-5-| 
E----------5-5---X-----------------------| 
Und Boogie Boogie 
e----------------------------------------| 
B----------------------------------------| 
G------------------5-5---X-7-7-7---7-7-7-| 
D----------7-7---X-5-5---X-7-7-7---7-7-7-| 
A----------7-7---X-3-3---X-5-5-5---5-5-5-| 
E----------5-5---X-----------------------| (x2) 

Verse 
           Ich supporte Cola, ich muss keine Bionade trinken 
e------------------------| 
B------------------------| 
G------------------------| 
D------------------------| 
A------------------------| 
E-0-3-4-5--5-------------| 
          und keine Klamotten tragen, die nach Bionade stinken. 
e------------------------| 
B------------------------| 
G------------------------| 
D------------------------| 
A------------------------| 
E-0-3-4-5--5-------------| 
Ich trage Adidas, weil mir die Marke steht. 
e------------------------| 
B------------------------| 
G------------------------| 
D------------------------| 
A------------------------| 
E-5-5-5-5-3-5-5----------| 
      Und Kinderhände steh'n für Qualität. 
e-----------------------------------------------| 
B-----------------------------------------------| 
G-----------------------------------------------| 
D-----------------------------------------------| 
A-----------------------------------------------| 
E-0-3-4-5-5-5-5-5-5-5-5-17-17-17-17-17-17-17-17-| 

Chorus 
Es ist mir Juppe! 
e----------------------------------------| 
B----------------------------------------| 
G------------------5-5---X-7-7-7---7-7-7-| 
D----------7-7---X-5-5---X-7-7-7---7-7-7-| 
A----------7-7---X-3-3---X-5-5-5---5-5-5-| 
E----------5-5---X-----------------------| 
Und Boogie Boogie 
e----------------------------------------| 
B----------------------------------------| 
G------------------5-5---X-7-7-7---7-7-7-| 
D----------7-7---X-5-5---X-7-7-7---7-7-7-| 
A----------7-7---X-3-3---X-5-5-5---5-5-5-| 
E----------5-5---X-----------------------| (x2) 

Bridge 
e----------------------------------------------------------------------------| 
B----------------------------------------------------------------------------| 
G----------------------------------------------------------------------------| 
D----------------------------------------------------------------------------| 
A-----5-6/\/\/\/\-----7-6-5--------------------------------------------------| 
E-5-7-----------------------5-3h5-8-5-----0-3-4-5--0-3-4-5--0-3-4-5--0-3-4-5-| 

Verse 
 Versuch mich nicht zu ändern, weil es einfach schon zu spät ist. 
e------------------------| 
B------------------------| 
G------------------------| 
D------------------------| 
A------------------------| 
E-0-3-4-5--5-------------| 
 Mein Gewissen hat sich aufgelöst zusammen mit Oasis. 
e------------------------| 
B------------------------| 
G------------------------| 
D------------------------| 
A------------------------| 
E-0-3-4-5--5-------------| 
 Ich mein, jeder wie er will, jedem steht es frei zu gehen. 
e------------------------| 
B------------------------| 
G------------------------| 
D------------------------| 
A------------------------| 
E-5-5-5-5-3-5-5----------| 
 Achselhaare stehen für Emanzipation - Kein Problem. 
e-----------------------------------------------| 
B-----------------------------------------------| 
G-----------------------------------------------| 
D-----------------------------------------------| 
A-----------------------------------------------| 
E-0-3-4-5-5-5-5-5-5-5-5-17-17-17-17-17-17-17-17-| 

Chorus 
Es ist mir Juppe! 
e----------------------------------------| 
B----------------------------------------| 
G------------------5-5---X-7-7-7---7-7-7-| 
D----------7-7---X-5-5---X-7-7-7---7-7-7-| 
A----------7-7---X-3-3---X-5-5-5---5-5-5-| 
E----------5-5---X-----------------------| 
Und Boogie Boogie 
e----------------------------------------| 
B----------------------------------------| 
G------------------5-5---X-7-7-7---7-7-7-| 
D----------7-7---X-5-5---X-7-7-7---7-7-7-| 
A----------7-7---X-3-3---X-5-5-5---5-5-5-| 
E----------5-5---X-----------------------| 
Vollkommen Ega-a-al 
e----------------------------------------| 
B----------------------------------------| 
G------------------5-5---X-7-7-7---7-7-7-| 
D----------7-7---X-5-5---X-7-7-7---7-7-7-| 
A----------7-7---X-3-3---X-5-5-5---5-5-5-| 
E----------5-5---X-----------------------| 
 Bla Bla Bla 
e----------------------------------------| 
B----------------------------------------| 
G------------------5-5---X-7-7-7---7-7-7-| 
D----------7-7---X-5-5---X-7-7-7---7-7-7-| 
A----------7-7---X-3-3---X-5-5-5---5-5-5-| 
E----------5-5---X-----------------------| 

Interlude 
e-------------------------------------------------------------------------| 
B-------------------------------------------------------------------------| 
G-------------------------------------------------------------------------| 
D-------------------------------------------------------------------------| 
A-------------------------------------------------------------------------| 
E-5-5-5-5-5-5-5-5-7-7-7-7-7-7-7-7-8-8-8-8-8-8-8-8-10-10-10-10-10-10-10-10-| (x4) 

Outro 
Juppe Juppe.       Boogie Boogie.   Juppe Juppe.     Boogie Boogie. 
e---------------------------------------------------------------------| 
B---------------------------------------------------------------------| 
G------------------5-5-5-5-5-5-5-5--7-7-7-7-7-7-7-7--9-9-9-9-9-9-9-9--| 
D-7-7-7-7-7-7-7-7--5-5-5-5-5-5-5-5--7-7-7-7-7-7-7-7--9-9-9-9-9-9-9-9--| 
A-7-7-7-7-7-7-7-7--3-3-3-3-3-3-3-3--5-5-5-5-5-5-5-5--7-7-7-7-7-7-7-7--| 
E-5-5-5-5-5-5-5-5-----------------------------------------------------|(x2) 
Es ist mir vollkommen egal 
e---------------------------------------------------------------------| 
B---------------------------------------------------------------------| 
G------------------5-5-5-5-5-5-5-5--7-7-7-7-7-7-7-7--9-9-9-9-9-9-9-9--| 
D-7-7-7-7-7-7-7-7--5-5-5-5-5-5-5-5--7-7-7-7-7-7-7-7--9-9-9-9-9-9-9-9--| 
A-7-7-7-7-7-7-7-7--3-3-3-3-3-3-3-3--5-5-5-5-5-5-5-5--7-7-7-7-7-7-7-7--| 
E-5-5-5-5-5-5-5-5-----------------------------------------------------| 
 Egal                               Egal 
e-----------------------------------------------------------------------| 
B-----------------------------------------------------------------------| 
G------------------5-5-5-5-5-5-5-5--7-7-7-7-7-7-7-7--9-9-9-9-9-9-9-9----| 
D-7-7-7-7-7-7-7-7--5-5-5-5-5-5-5-5--7-7-7-7-7-7-7-7--9-9-9-9-9-9-9-9--7-| 
A-7-7-7-7-7-7-7-7--3-3-3-3-3-3-3-3--5-5-5-5-5-5-5-5--7-7-7-7-7-7-7-7--7-| 
E-5-5-5-5-5-5-5-5-----------------------------------------------------5-| 
share this page

See Also: