E-Chords
Kraftklub

Gestern Nacht(Tabs)

Kraftklub

roll up this ad to continue

Key: C#
Gestern Nacht  

einfach die Chords als Powerchord spielen, dann passt das 

Introriff 
e|------------------| 
B|------------------| 
G|-----------6--4-4-| 
D|-----9-6---6--4-4-| 
A|---------7--------| 
E|-7-9--------------| 

Verse 
Introriff wird angespielt, aber nicht durchgezogen.) 

Gegröle 
e|---------------------| 
B|---------------------| 
G|---------------------| 
D|-------6-------------| 
A|---7-9------7-9-7----| 
E|-9--------9--------9-| 

Chorus 
C# E F# B 

Bridge 
C# F# E B 


tab by duncan.wick 
share this page

See Also: