E-Chords
Korzus

Catimba(Tabs)

Korzus

roll up this ad to continue

        e|------------------------------------------------------ 
B|------------------------------------------------------ 
G|------------------------------------------------------ 
D|---3-3-3-3---3-3-3---3-3-3-4-4-2-2-2------------------        3x 
A|---3-3-3-3---3-3-3---3-3-3-4-4-2-2-2------------------ 
E|---1-1-1-1---1-1-1---1-1-1-2-2-0-0-0------------------ 
 
e|------------------------------------------------------ 
B|------------------------------------------------------ 
G|------------------------------------------------------ 
D|--3-3-3-3----3-3-3---3-3-3---------------------------- 
A|--3-3-3-3----3-3-3---3-3-3----9~~--------------------- 
E|--1-1-1-1----1-1-1---1-1-1---------------------------- 
  |------------------------| 
           Abafado 
 
e|------------------------------------------------------ 
B|------------------------------------------------------ 
G|------------------------------------------------------ 
D|---3-3-3-3---3-3-3---3-3-3-4-4-2-2-2------------------        4x 
A|---3-3-3-3---3-3-3---3-3-3-4-4-2-2-2------------------ 
E|---1-1-1-1---1-1-1---1-1-1-2-2-0-0-0------------------ 
 
e|------------------------------------------------------ 
B|------------------------------------------------------ 
G|------------------------------------------------------ 
D|---3-3-3-3---3-3-3---3-3-3-4-4-2-2-2------------------        4x 
A|---3-3-3-3---3-3-3---3-3-3-4-4-2-2-2------------------ 
E|---1-1-1-1---1-1-1---1-1-1-2-2-0-0-0------------------ 
   |-----|   |---|   |---------------| 
 
e|------------------------------------------------------ 
B|------------------------------------------------------ 
G|------------------------------------------------------ 
D|---3-3-3-3---3-3-3---3-3-3-4-4-2-2-2------------------        4x 
A|---3-3-3-3---3-3-3---3-3-3-4-4-2-2-2------------------ 
E|---1-1-1-1---1-1-1---1-1-1-2-2-0-0-0------------------ 
 
 
Minha ferida cicatriza com o ódio seu...... 
e|------------------------------------------------------ 
B|------------------------------------------------------ 
G|------------------------------------------------------ 
D|--4-4-4-4-6-6-6-6-3-3-3-3-2-2-2-2--------------------- 
A|--4-4-4-4-6-6-6-6-3-3-3-3-2-2-2-2--------------------- 
E|--2-2-2-2-4-4-4-4-1-1-1-1-0-0-0-0--------------------- 

        

Written by Heros Neto, Marcello Pompeu, Ricardo Siebert Dib, Rodrigo Pinto, Silvio Golfetti

share this page

See Also: