E-Chords
Klaus mit Foch

Tife Tife(Tabs)

Klaus mit Foch

roll up this ad to continue

Intro 
G|--------------|--------------|--------------|---------------| 
D|--------------|--------------|--------------|---------------| 
A|--------------|-7-7--7-------|--------------|-7-7--7-----5--| 
E|-0-0--0-6-6--6|--------6-6--6|-0-0--0-6-6--6|--------6-6---6| 

G|--------------|--------------|--------------|----------------| 
D|--------------|--------------|--------------|----------------| 
A|--------------|-7-7--7-------|--------------|-7-7--7-----5-h7| 
E|-0-0--0-6-6--6|--------6-6--6|-0-0--0-6-6--6|--------5-6-----| 

G|--------------|--------------|--------------|---------------| 
D|--------------|--------------|--------------|---------------| 
A|--------------|-7-7--7-------|--------------|-7-7--7-----5--| 
E|-0-0--0-6-6--6|--------6-6--6|-0-0--0-6-6--6|--------6-6---6| 

G|--------------|--------------|--------------|-----------------| 
D|--------------|--------------|--------------|-----------------| 
A|--------------|-7-7--7-------|--------------|-7-7--7-----5----| 
E|-0-0--0-6-6--6|--------6-6--6|-0-0--0-6-6--6|--------5-6---(0)| 

Verse 
G|--------------|--------------|--------------|---------------| 
D|--------------|--------------|--------------|---------------| 
A|--------------|-7-7--7-------|--------------|-7-7--7-----5--| 
E|-0-0--0-6-6--6|--------6-6--6|-0-0--0-6-6--6|--------6-6---6| 

G|--------------|--------------|--------------|---------------| 
D|--------------|--------------|--------------|--------8-8---5| 
A|--------------|-7-7--7-------|--------------|-7-7--7-----7--| 
E|-0-0--0-6-6--6|--------6-6--6|-0-0--0-6-6--6|---------------| 

Interlude 
G|--------------|--------------|--------------|---------------| (x6) 
D|--------------|--------------|--------------|---------------| 
A|--------------|-7-7--7-------|--------------|-7-7--7-----5--| 
E|-0-0--0-6-6--6|--------6-6--6|-0-0--0-6-6--6|--------6-6---6| 

Verse 
G|--------------|--------------|--------------|---------------| 
D|--------------|--------------|--------------|---------------| 
A|--------------|-7-7--7-------|--------------|-7-7--7-----5--| 
E|-0-0--0-6-6--6|--------6-6--6|-0-0--0-6-6--6|--------6-6---6| 

G|--------------|--------------|--------------|---------------| 
D|--------------|--------------|--------------|--------8-8---5| 
A|--------------|-7-7--7-------|--------------|-7-7--7-----7--| 
E|-0-0--0-6-6--6|--------6-6--6|-0-0--0-6-6--6|---------------| 

Interlude 
G|--------------|--------------|--------------|---------------| (x3) 
D|--------------|--------------|--------------|---------------| 
A|--------------|-7-7--7-------|--------------|-7-7--7-----5--| 
E|-0-0--0-6-6--6|--------6-6--6|-0-0--0-6-6--6|--------6-6---6| 

G|--------------|--------------|--------------|---------------| 
D|--------------|--------------|--------------|--------8-8---5| 
A|--------------|-7-7--7-------|--------------|-7-7--7-----7--| 
E|-0-0--0-6-6--6|--------6-6--6|-0-0--0-6-6--6|---------------| 

Verse 
G|--------------|--------------|--------------|---------------| (x2) 
D|--------------|--------------|--------------|---------------| 
A|--------------|-7-7--7-------|--------------|-7-7--7-----5--| 
E|-0-0--0-6-6--6|--------6-6--6|-0-0--0-6-6--6|--------6-6---6| 

Interlude 
G|--------------|--------------|--------------|---------------| 
D|--------------|--------------|--------------|---------------| 
A|--------------|-7-7--7-------|--------------|-7-7--7-----5--| 
E|-0-0--0-6-6--6|--------6-6--6|-0-0--0-6-6--6|--------6-6---6| 

G|--------------|--------------|--------------|---------------| 
D|--------------|--------------|--------------|--------8-8---5| 
A|--------------|-7-7--7-------|--------------|-7-7--7-----7--| 
E|-0-0--0-6-6--6|--------6-6--6|-0-0--0-6-6--6|---------------| 

Shout 
G|--------------|--------------|--------------|--------------| 
D|--------------|--------------|--------------|--------------| 
A|--------------|-7-7--7-------|--------------|-7-7--7-------| 
E|-0-0--0-6-6--6|--------6-6--6|-0-0--0-6-6--6|--------6-6--6| 

G|--------------|--------------|--------------|---------------| 
D|--------------|--------------|--------------|--------8-8---5| 
A|--------------|-7-7--7-------|--------------|-7-7--7-----7--| 
E|-0-0--0-6-6--6|--------6-6--6|-0-0--0-6-6--6|---------------| 

Verse 
G|--------------|--------------|--------------|--------------| 
D|--------------|--------------|--------------|--------------| 
A|--------------|-7-7--7-------|--------------|-7-7--7-------| 
E|-0-0--0-6-6--6|--------6-6--6|-0-0--0-6-6--6|--------6-6--6| 

G|--------------|--------------|--------------|---------------| 
D|--------------|--------------|--------------|--------8-8---5| 
A|--------------|-7-7--7-------|--------------|-7-7--7-----7--| 
E|-0-0--0-6-6--6|--------6-6--6|-0-0--0-6-6--6|---------------| 

Interlude 
G|--------------|--------------|--------------|---------------| (x3) 
D|--------------|--------------|--------------|---------------| 
A|--------------|-7-7--7-------|--------------|-7-7--7-----5--| 
E|-0-0--0-6-6--6|--------6-6--6|-0-0--0-6-6--6|--------6-6---6| 

G|--------------|--------------|--------------|---------------| 
D|--------------|--------------|--------------|--------8-8---5| 
A|--------------|-7-7--7-------|--------------|-7-7--7-----7--| 
E|-0-0--0-6-6--6|--------6-6--6|-0-0--0-6-6--6|---------------| 

Verse 
G|--------------|--------------|--------------|---------------| 
D|--------------|--------------|--------------|---------------| 
A|--------------|-7-7--7-------|--------------|-7-7--7-----5--| 
E|-0-0--0-6-6--6|--------6-6--6|-0-0--0-6-6--6|--------6-6---6| 

G|--------------|--------------|--------------|---------------| 
D|--------------|--------------|--------------|--------8-8---5| 
A|--------------|-7-7--7-------|--------------|-7-7--7-----7--| 
E|-0-0--0-6-6--6|--------6-6--6|-0-0--0-6-6--6|---------------| 

Outro 
G|--------------|--------------|--------------|---------------| (x2) 
D|--------------|--------------|--------------|---------------| 
A|--------------|-7-7--7-------|--------------|-7-7--7-----5--| 
E|-0-0--0-6-6--6|--------6-6--6|-0-0--0-6-6--6|--------6-6---6| 
*************************** | h Hammer-on | (n) Ghost note ***************************
share this page

See Also: