E-Chords
Klank

downside(Tabs)

Klank

Key: D
 Drop D tuning 
 
Verses and Part1 of Intro-  all chords D5 
e:----------------------------- 
B:----------------------------- 
G:----------------------------- 
D:--0-0---0-0---0-0---0--0--0-- 
A:--0-0---0-0---0-0---0--0--0-- 
E:--0-0---0-0---0-0---0--0--0-- 
 
 
Part1 of Chorus and Part2 of Intro 
e:--------------------------------------- 
B:--------------------------------------- 
G:--------------------------------------- 
D:--5-/-7---6--5--6--5------------------- 
A:--3-/-5---6--5--6--5------------------- 
E:----------6--5--6--5------------------- 
 
*     / = Slide up 
 
 
Part2 of Chorus 
e:--------------------------------------- 
B:--------------------------------------- 
G:--------------------------------------- 
D:--0-----------------------1--6--5--3--- 
A:--0---x---6---5---4---3---1--6--5--3--- 
E:--0---x-------------------1--6--5--3--- 
 
 
e:--------------------------------------- 
B:--------------------------------------- 
G:--------------------------------------- 
D:--0---------------1--1--------6--6----- 
A:--0---x---6---5---1--1--x-x---6--6----- 
E:--0---x-----------1--1--x-x---6--6----- 
 
Tabbed by- Brandon Payton 
 
e-mail -   [email protected] 
 
 

roll up this ad to continue

share this page

See Also: