E-Chords
King Tuff

Anthem(Tabs)

King Tuff

roll up this ad to continue

 



Standard EADGBe 

Intro jam (0:00-0:25) 
|---------------------------------------| 
|---------------------------------------| 
|---------------------------------------| 
|--------------9--9-9----9-9------------|     x8 
|-9-9--------9----7-7-7- 6-6------------| 
|-9-9--9-11-----------------------------| 

Verse jam (0:25-1:16) 
|------------------------------------------------------------------| 
|------------------------------------------------------------------| 
|--------(4)-------------------------------------------------------| 
|--4--4--4-----4--4--4----9--9--9----- 4--4--4---------------------|     x4 
|--4--4--4-----4--4--4----6--6--6--6-- 4--4--4---------------------| 
|--2--2--2--2--2--2--2--2--------------2--2--2---------------------| 

|------------------------------------------------------| 
|------------------9--9--9-----------------------------| 
|-------9----------------------------------------------| 
|-9-9---9-9-9-9--- 9--9--9--9-9-9----------------------| 
|-9-9---7-9-9-9--- 7--7--7--9-9-9----------------------| 
|-7-7-7---7-7-7-7--------  --7-7-7---------------------| 

|------------------------------------------------------| 
|------------------7--7--7-----------------------------| 
|-------9----------------------------------------------| 
|-9-9---9-9-9-9--- 7--7--7--9-9-9----------------------| 
|-9-9---7-9-9-9--- 5--5--5--9-9-9----------------------| 
|-7-7-7---7-7-7-7-------- --7-7-7----------------------| 

|-------------------------------------------------------------------| 
|-------------------------------------------------------------------| 
|--------(4)--------------------------------------------------------| 
|--4--4--4-----4--4--4----9--9--9------ 4--4--4---------------------|     x2 
|--4--4--4-----4--4--4----6--6--6--6--  4--4--4---------------------| 
|--2--2--2--2--2--2--2--2-------------- 2--2--2---------------------| 


Solo riff jam 
(1:16-1:58) 
e|-----------------------------------------------------------------------------| 
B|-----------------------------------------------------------------------------| 
G|-----------------------------------------------------------------------------| 
D|-----------------------------------------------------------------------------| 
A|----------6-7-6------7-6--7-6------------------------------------------------| 
E|-0-6-7-9--------9-7-----7-----7--7-6-0--7-6-0--0-----------------------------| 

e|-----------------------------------------------------------------------------| 
B|-----------------------------------------------------------------------------| 
G|-----------------------------------------------------------------------------| 
D|----------------------------------7-6---7-6----------------------------------| 
A|----------4-5-4-----5-4---5-4--------7-----7---------------------------------| 
E|-0-4-5-7-------7-5-----5-----5---------------0-------------------------------| 

e|-----------------------------------------------------------------------------| 
B|-----------------------------------------------------------------------------| 
G|-----------------------------------------------------------------------------| 
D|-----------------------------------------------------------------------------| 
A|----------4-5-4------5-4--5-4------------------------------------------------| 
E|-0-4-5-7--------7-5-----5-----5--5-4-0--5-4-0--0-----------------------------| 

e|-------------------------------------------------------------------------------| 
B|-------------------------------------------------------------------------------| 
G|-------------------------------------------------------------------------------| 
D|-------------------------------------------------------------------------------| 
A|----------4-5-4----5-4--5-4--5-4---5-4-----------------------------------------| 
E|-0-4-5-7-------7-5----5----5-----5-----5--5-4-0-5-4-0-5-4-0-5-4-0--0-----------| 

 
share this page

See Also: