E-Chords
King Gizzard And The Lizard Wizard

roll up this ad to continue

   

Intro: 

Guitar 1: 
e|--------------------------------| 
B|--------------------------------| 
G|-----------0---0---0---0---0----| x2 
D|-2.-3--3-5---5---5---5---5---5--| 
A|--------------------------------| 
E|--------------------------------| 


Pre-Verse: 
Guitar 1: 
e|--8-----8-----8-----8----8--10-10-10-10-10-10-10-10-10-10-10-10-10--| 
B|-10-----8----10-----8---10--12-12-12-12-12-12-12-12-12-12-12-12-12--| 
G|-10-----9----10-----9---10--12-12-12-12-12-12-12-12-12-12-12-12-12--| 
D|-10----10----10----10---10--12-12-12-12-12-12-12-12-12-12-12-12-12--| 
A|--8----10-----8----10----8--10-10-10-10-10-10-10-10-10-10-10-10-10--| 
E|--------8-----------8-----------------------------------------------| 

e|-----8--10-10-10-10-10-10-10-10-10-10-10-10-10--| 
B|----10--12-12-12-12-12-12-12-12-12-12-12-12-12--| 
G|-9.-10--12-12-12-12-12-12-12-12-12-12-12-12-12--| x3 
D|-9.-10--12-12-12-12-12-12-12-12-12-12-12-12-12--| 
A|-7.--8--10-10-10-10-10-10-10-10-10-10-10-10-10--| 
E|------------------------------------------------| 

Guitar 2 plays these notes for the 
first four chords in the sequence: 
e|---------------------| 
B|---------------------| 
G|---------------------| 
D|---------------------| 
A|-8----7----5----3----| 
E|---------------------| 


verse 1: 
'Oh, hell, I'm feelin' underwater, my head is sinking like a stone, 
And, hell, I'm feelin' kinda sick, I don't know, what's the use of it? 
And when you're feelin' suicidal, sometimes you just got to unfold' 
Guitar 1: 
e|--8-----8-----8-----8----8--10-10-10-10-10-10-10-10-10-10-10-10-10--| 
B|-10-----8----10-----8---10--12-12-12-12-12-12-12-12-12-12-12-12-12--| 
G|-10-----9----10-----9---10--12-12-12-12-12-12-12-12-12-12-12-12-12--| \ 
D|-10----10----10----10---10--12-12-12-12-12-12-12-12-12-12-12-12-12--|  \ 
A|--8----10-----8----10----8--10-10-10-10-10-10-10-10-10-10-10-10-10--|   \ 
E|--------8-----------8-----------------------------------------------|    | 
                                                                           | x3 
e|-----8--10-10-10-10-10-10-10-10-10-10-10-10-10--|                        | 
B|----10--12-12-12-12-12-12-12-12-12-12-12-12-12--|                       / 
G|-9.-10--12-12-12-12-12-12-12-12-12-12-12-12-12--|                      / 
D|-9.-10--12-12-12-12-12-12-12-12-12-12-12-12-12--|                     / 
A|-7.--8--10-10-10-10-10-10-10-10-10-10-10-10-10--| 
E|------------------------------------------------| 

Guitar 2 plays the same notes as before for 
the first four chords in each sequence: 
e|---------------------| 
B|---------------------| 
G|---------------------| x3  
D|---------------------| 
A|-8----7----5----3----| 
E|---------------------| 


Guitar riff: 
Guitar 2: 
e|------------------------------------------------------------------| 
B|------------------------------------------------------------------| 
G|------------------------------------------------------------------| 
D|------------------------------------------------------------------| 
A|-7-8-10---8p7-----7-8-10---10p8-10-b12----7-8-10------7-8-10------| 
E|--------------8---------------------------------------------------| 

e|----------------------------------------------| 
B|----------------------------------------------| 
G|----------------------------------------------| 
D|----------------------------------------------| 
A|-7-8-10---8p7-----7-8-10---10p8-10-b12--------| 
E|--------------8-------------------------------| 

An acoustic guitar that is very buried back in the mix plays this: 
e|--8--8--8--8--8--8--8--8--8--8--8--8--8--8--8--8--8--8--8--8--8--8--8--8--8--8--8--8--8--8--8--8-| 
B|-10-10-10-10-10-10-10-10-10-10-10-10-10-10-10-10--8--8--8--8--8--8--8--8--8--8--8--8--8--8--8--8-| 
G|-10-10-10-10-10-10-10-10-10-10-10-10-10-10-10-10--9--9--9--9--9--9--9--9--9--9--9--9--9--9--9--9-| 
D|-10-10-10-10-10-10-10-10-10-10-10-10-10-10-10-10-10-10-10-10-10-10-10-10-10-10-10-10-10-10-10-10-| 
A|--8--8--8--8--8--8--8--8--8--8--8--8--8--8--8--8-10-10-10-10-10-10-10-10-10-10-10-10-10-10-10-10-| 
E|--------------------------------------------------8--8--8--8--8--8--8--8--8--8--8--8--8--8--8--8-| 

e|--8--10-10-10-10-10-10-10-10-10-10-10-10-10------8--10-10-10-10-10-10-10-10-10-10-10-10-10--| 
B|-10--12-12-12-12-12-12-12-12-12-12-12-12-12-----10--12-12-12-12-12-12-12-12-12-12-12-12-12--| 
G|-10--12-12-12-12-12-12-12-12-12-12-12-12-12--9.-10--12-12-12-12-12-12-12-12-12-12-12-12-12--| 
D|-10--12-12-12-12-12-12-12-12-12-12-12-12-12--9.-10--12-12-12-12-12-12-12-12-12-12-12-12-12--| 
A|--8--10-10-10-10-10-10-10-10-10-10-10-10-10--7.--8--10-10-10-10-10-10-10-10-10-10-10-10-10--| 
E|--------------------------------------------------------------------------------------------| 

e|--8--8--8--8--8--8--8--8--8--8--8--8--8--8--8--8--8--8--8--8--8--8--8--8--8--8--8--8--8--8--8--8-| 
B|-10-10-10-10-10-10-10-10-10-10-10-10-10-10-10-10--8--8--8--8--8--8--8--8--8--8--8--8--8--8--8--8-| 
G|-10-10-10-10-10-10-10-10-10-10-10-10-10-10-10-10--9--9--9--9--9--9--9--9--9--9--9--9--9--9--9--9-| 
D|-10-10-10-10-10-10-10-10-10-10-10-10-10-10-10-10-10-10-10-10-10-10-10-10-10-10-10-10-10-10-10-10-| 
A|--8--8--8--8--8--8--8--8--8--8--8--8--8--8--8--8-10-10-10-10-10-10-10-10-10-10-10-10-10-10-10-10-| 
E|--------------------------------------------------8--8--8--8--8--8--8--8--8--8--8--8--8--8--8--8-| 


Pre-Verse: 
Guitar 1: 
e|-----8--10-10-10-10-10-10-10-10-10-10-10-10-10--| 
B|----10--12-12-12-12-12-12-12-12-12-12-12-12-12--| 
G|-9.-10--12-12-12-12-12-12-12-12-12-12-12-12-12--| x4 
D|-9.-10--12-12-12-12-12-12-12-12-12-12-12-12-12--| 
A|-7.--8--10-10-10-10-10-10-10-10-10-10-10-10-10--| 
E|------------------------------------------------| 


verse 2: 
'Oh, hell, I'm feelin' underwater, my head is sinking like a stone, 
And, hell, I'm feelin' like a prick, I don't know, what's the use of it? 
And when you're feelin' suicidal, sometimes you just got to unfold' 
Guitar 1: 
e|--8-----8-----8-----8----8--10-10-10-10-10-10-10-10-10-10-10-10-10--| 
B|-10-----8----10-----8---10--12-12-12-12-12-12-12-12-12-12-12-12-12--| 
G|-10-----9----10-----9---10--12-12-12-12-12-12-12-12-12-12-12-12-12--| \ 
D|-10----10----10----10---10--12-12-12-12-12-12-12-12-12-12-12-12-12--|  \ 
A|--8----10-----8----10----8--10-10-10-10-10-10-10-10-10-10-10-10-10--|   \ 
E|--------8-----------8-----------------------------------------------|    | 
                                                                           | x3 
e|-----8--10-10-10-10-10-10-10-10-10-10-10-10-10--|                        | 
B|----10--12-12-12-12-12-12-12-12-12-12-12-12-12--|                       / 
G|-9.-10--12-12-12-12-12-12-12-12-12-12-12-12-12--|                      / 
D|-9.-10--12-12-12-12-12-12-12-12-12-12-12-12-12--|                     / 
A|-7.--8--10-10-10-10-10-10-10-10-10-10-10-10-10--| 
E|------------------------------------------------| 

Guitar 2 plays the same notes as before for 
the first four chords in each sequence: 
e|---------------------| 
B|---------------------| 
G|---------------------| x3  
D|---------------------| 
A|-8----7----5----3----| 
E|---------------------| 


Guitar riff: 
Guitar 2: 
e|------------------------------------------------------------------| 
B|------------------------------------------------------------------| 
G|------------------------------------------------------------------| 
D|------------------------------------------------------------------| 
A|-7-8-10---8p7-----7-8-10---10p8-10-b12----7-8-10------8--10-------| 
E|--------------8---------------------------------------------------| 

e|--------------------------------------------------------------------------------| 
B|--------------------------------------------------------------------------------| 
G|--------------------------------------------------------------------------------| 
D|--------------------------------------------------------------------------------| 
A|-7-8-10---8p7-----7-8-10---10p8-10/12--12/14--14/15--15/17------17/19-----------| 
E|--------------8-------------------------------------------------------17--------| 

Acoustic guitar: 
e|-8--8--8--8--8--8--8--8--8--8--8--8--8--8--8--8--8--8--8--8--8--8--8--8--8--8--8--8--8--8--8--8| 
B|10-10-10-10-10-10-10-10-10-10-10-10-10-10-10-10--8--8--8--8--8--8--8--8--8--8--8--8--8--8--8--8| 
G|10-10-10-10-10-10-10-10-10-10-10-10-10-10-10-10--9--9--9--9--9--9--9--9--9--9--9--9--9--9--9--9|\ 
D|10-10-10-10-10-10-10-10-10-10-10-10-10-10-10-10-10-10-10-10-10-10-10-10-10-10-10-10-10-10-10-10| \ 
A|-8--8--8--8--8--8--8--8--8--8--8--8--8--8--8--8-10-10-10-10-10-10-10-10-10-10-10-10-10-10-10-10|  \ 
E|-------------------------------------------------8--8--8--8--8--8--8--8--8--8--8--8--8--8--8--8|   | 
                                                                                                     | x2 
e|--8--10-10-10-10-10-10-10-10-10-10-10-10-10------8--10-10-10-10-10-10-10-10-10-10-10-10-10--|      | 
B|-10--12-12-12-12-12-12-12-12-12-12-12-12-12-----10--12-12-12-12-12-12-12-12-12-12-12-12-12--|     / 
G|-10--12-12-12-12-12-12-12-12-12-12-12-12-12--9.-10--12-12-12-12-12-12-12-12-12-12-12-12-12--|    / 
D|-10--12-12-12-12-12-12-12-12-12-12-12-12-12--9.-10--12-12-12-12-12-12-12-12-12-12-12-12-12--|   / 
A|--8--10-10-10-10-10-10-10-10-10-10-10-10-10--7.--8--10-10-10-10-10-10-10-10-10-10-10-10-10--| 
E|--------------------------------------------------------------------------------------------| 


Harmonica Solo: 
Guitar 1: 
e|--8--8--8--8--8--8--8--8--8--8--8--8--8--8--8--8--8--8--8--8--8--8--8--8--8--8--8--8--8--8--8--8-| 
B|-10-10-10-10-10-10-10-10-10-10-10-10-10-10-10-10--8--8--8--8--8--8--8--8--8--8--8--8--8--8--8--8-| 
G|-10-10-10-10-10-10-10-10-10-10-10-10-10-10-10-10--9--9--9--9--9--9--9--9--9--9--9--9--9--9--9--9-| 
D|-10-10-10-10-10-10-10-10-10-10-10-10-10-10-10-10-10-10-10-10-10-10-10-10-10-10-10-10-10-10-10-10-| 
A|--8--8--8--8--8--8--8--8--8--8--8--8--8--8--8--8-10-10-10-10-10-10-10-10-10-10-10-10-10-10-10-10-| 
E|--------------------------------------------------8--8--8--8--8--8--8--8--8--8--8--8--8--8--8--8-| 

e|--8--10-10-10-10-10-10-10-10-10-10-10-10-10------8--10-10-10-10-10-10-10-10-10-10-10-10-10--| 
B|-10--12-12-12-12-12-12-12-12-12-12-12-12-12-----10--12-12-12-12-12-12-12-12-12-12-12-12-12--| 
G|-10--12-12-12-12-12-12-12-12-12-12-12-12-12--9.-10--12-12-12-12-12-12-12-12-12-12-12-12-12--| 
D|-10--12-12-12-12-12-12-12-12-12-12-12-12-12--9.-10--12-12-12-12-12-12-12-12-12-12-12-12-12--| 
A|--8--10-10-10-10-10-10-10-10-10-10-10-10-10--7.--8--10-10-10-10-10-10-10-10-10-10-10-10-10--| 
E|--------------------------------------------------------------------------------------------| 

e|--8--8--8--8--8--8--8--8--8--8--8--8--8--8--8--8--8--8--8--8--8--8--8--8--8--8--8--8--8--8--8--8-| 
B|-10-10-10-10-10-10-10-10-10-10-10-10-10-10-10-10--8--8--8--8--8--8--8--8--8--8--8--8--8--8--8--8-| 
G|-10-10-10-10-10-10-10-10-10-10-10-10-10-10-10-10--9--9--9--9--9--9--9--9--9--9--9--9--9--9--9--9-| 
D|-10-10-10-10-10-10-10-10-10-10-10-10-10-10-10-10-10-10-10-10-10-10-10-10-10-10-10-10-10-10-10-10-| 
A|--8--8--8--8--8--8--8--8--8--8--8--8--8--8--8--8-10-10-10-10-10-10-10-10-10-10-10-10-10-10-10-10-| 
E|--------------------------------------------------8--8--8--8--8--8--8--8--8--8--8--8--8--8--8--8-| 


Post-Solo: 
Guitar 1: 
e|-------------------------| 
B|-------------------------| 
G|-------------------------| x8 
D|-------------------------| 
A|-7.-8--10-10-10-10-10-10-| 
E|-------------------------| 


Outro: 
And then hit the big chords again: 
Guitar 1: 
e|--8-----8-----8-----8---10--------| 
B|-10-----8----10-----8---12--------| 
G|-10-----9----10-----9---12--------| 
D|-10----10----10----10---12--------| 
A|--8----10-----8----10---10--------| 
E|--------8-----------8-------------| 

Guitar 2: 
e|-------------------------------| 
B|-------------------------------| 
G|-------------------------------| 
D|-------------------------------| 
A|-8----7----5----3----10--------| 
E|-------------------------------| 



************************************ 

| /   slide up 
| \   slide down 
| h   hammer-on 
| p   pull-off 
| ~   vibrato 
| +   harmonic 
| x   Mute note 
| .   staccato 
| b   Bend 
| pb  Pre-bend 
| br  Bend release 
| pbr Pre-bend release 
| brb Bend release bend 

************************************     
 
share this page

See Also: