E-Chords
King Gizzard And The Lizard Wizard

roll up this ad to continue

Intro 
e|---------------------------------------------------| 
B|---------------------------------------------------| 
G|---------------------------------------------------| 
D|---------------------------------------------------| 
A|-4---4-7-6-4---x8--------------------------------| 
E|---------------------------------------------------| 

'Do-do-do-doom city' 
e|---------------------------------------------------| 
B|---------------------------------------------------| 
G|---------------------------------------------------| 
D|---4---4---4---4-----------------------------------| x8 
A|---------------------------------------------------| 
E|-2---2---2---2-------------------------------------| 

verse 1 
'I think I'll die, When Doom City air this way comes' 
e|---------------------------------------------------| 
B|---------------------------------------------------|  
G|-4---6-4------4------------------------------------| 
D|---------7pb-----7pb-6-4--4-2-4--------------------|  
A|---------------------------------------------------| 
E|---------------------------------------------------| 

'He, in Empyrean, Breathes from his mouth and over tongue' 
e|---------------------------------------------------| 
B|---------------------------------------------------| 
G|-4---6-4------4------------------------------------| 
D|---------7pb-----7pb-6-4--4-6-4----------------------| 
A|---------------------------------------------------|   
E|---------------------------------------------------| 

'Sky will crucify, Tear little holes in my lungs' 
e|---------------------------------------------------| 
B|---------------------------------------------------|  
G|-4---6-4------4------------------------------------| 
D|---------7pb-----7pb-6-4--4-2-4--------------------| 
A|---------------------------------------------------|   
E|---------------------------------------------------| 

'I think I'll die, When Doom City air this way comes' 
e|---------------------------------------------------| 
B|---------------------------------------------------|  
G|-4---6-4------4------------------------------------| 
D|---------7pb-----7pb-6-4--4-6-4--------------------| 
A|---------------------------------------------------|   
E|---------------------------------------------------| 

Chorus 
e|---------------------------------------------------| 
B|---------------------------------------------------| 
G|---------------------------------------------------| 
D|---------------------------------------------------| 
A|-4---4-7-6-4---4-7-6-4---4-7-6-4---4-7-6-----------| 
E|---------------------------------------------------| 

'Doom       ci         ty' 
e|---------------------------------------------------| 
B|---------------------------------------------------| 
G|-9---------8---------6-----------------------------| 
D|---------------------------------------------------| 
A|-----4-7-6-----4-7-6-----4-7-6-4---4-7-6-----------| x2 
E|---------------------------------------------------| 

'Do-do-do-doom city' 
e|---------------------------------------------------| 
B|---------------------------------------------------| 
G|---------------------------------------------------| 
D|---4---4---4---4-----------------------------------| x8  
A|---------------------------------------------------| 
E|-2---2---2---2-------------------------------------| 

verse 2 
'Spark in firmament, Doom City sky opens up' 
e|---------------------------------------------------| 
B|---------------------------------------------------|  
G|-4---6-4------4------------------------------------| 
D|---------7pb-----7pb-6-4--4-2-4--------------------| 
A|---------------------------------------------------| 
E|---------------------------------------------------| 

'He disorients, Everyone's lives with his breath' 
e|---------------------------------------------------| 
B|---------------------------------------------------| 
G|-4---6-4------4------------------------------------| 
D|---------7pb-----7pb-6-4--4-6-4--------------------| 
A|---------------------------------------------------|   
E|---------------------------------------------------| 

'Charged with particles, Doom City air rips me up' 
e|---------------------------------------------------| 
B|---------------------------------------------------|  
G|-4---6-4------4------------------------------------| 
D|---------7pb-----7pb-6-4--4-2-4--------------------| 
A|---------------------------------------------------|   
E|---------------------------------------------------| 

'Unbelievable, Doom City sky makes him laugh' 
e|---------------------------------------------------| 
B|---------------------------------------------------|  
G|-4---6-4------4------------------------------------| 
D|---------7pb-----7pb-6-4--4-6-4--------------------| 
A|---------------------------------------------------|   
E|---------------------------------------------------| 

Chorus 
e|---------------------------------------------------| 
B|---------------------------------------------------| 
G|---------------------------------------------------| 
D|---------------------------------------------------| 
A|-4---4-7-6-4---4-7-6-4---4-7-6-4---4-7-6-----------| x2 
E|---------------------------------------------------| 

'Doom       ci         ty' 
e|---------------------------------------------------| 
B|---------------------------------------------------| 
G|-9---------8---------6-----------------------------| 
D|---------------------------------------------------| 
A|-----4-7-6-----4-7-6-----4-7-6-4---4-7-6-----------| x3 
E|---------------------------------------------------| 

'Doom       ci         ty' 
e|---------------------------------------------------| 
B|---------------------------------------------------| 
G|-9---------8---------6-----------------------------| 
D|---------------------------------------------------| 
A|-----4-7-6-----4-7-6-----4-7-6-4---4-7-6-4---------|  
E|---------------------------------------------------| 



Bonus 
If you want the Chorus to sound heavier, try power chords 
e|---------------------------------------------------| 
B|---------------------------------------------------| 
G|-6---6-9-8-6---6-9-8-6---6-9-8-6---6-9-8-----------| 
D|-6---6-9-8-6---6-9-8-6---6-9-8-6---6-9-8-----------| 
A|-4---4-7-6-4---4-7-6-4---4-7-6-4---4-7-6-----------| 
E|---------------------------------------------------| 

*********************************** 
| pb  Pre-bend 
*********************************** 
share this page

See Also: