E-Chords
King Gizzard And The Lizard Wizard

roll up this ad to continue

Key: B
INTRO RIFF (bass)  
G|-----------------------------|          G|----------------------------|  
D|-------------4-------------2-| 3x, then D|-------------4-2-2-2-2--0---|  
A|-0h2--2-2--2---0h2--2-2--2---|          A|-0h2--2-2--2----------------|  
E|-----------------------------|          E|----------------------------|  

MAIN RIFF (guitar)  
e|-------------------|          e|-----------------------------------|  
B|-10-7-10-9--7-10-7-| 2x, then B|-10=7=10=9--7---7------------------|  
G|-------------------|          G|--------------9----9-6h7---7---7-9-|  
D|-------------------|          D|-------------------------9---9-----|  
A|-------------------|          A|-----------------------------------|  
E|-------------------|          E|-----------------------------------|  

e|-------------------|          e|-------------------9h10-9-7----7-5-------|  
B|-10-7-10-9--7-10-7-| 2x, then B|-10=7=10=9--7-9-7-----------10-----7p5---|  
G|-------------------|          G|---------------------------------------7-|  
D|-------------------|          D|-----------------------------------------|  
A|-------------------|          A|-----------------------------------------|  
E|-------------------|          E|-----------------------------------------|  

INTERLUDE RIFF  
e|-------------------------------|----------------------------|  
B|---5-7-5-7-5-7-5-7b-5----------|-----------5-7b-------------|  
G|---5-7-5-7-5-7-5-7b-5------5---|---5---5-7-5-7b--5------5---|  
D|----------------------7--7---7-|-7---7-------------7--7---7-|  
A|-------------------------------|----------------------------|  
E|-------------------------------|----------------------------|  

e|------------------------------|-------------------------------|  
B|-------------5-------------5--|--------------5----------------|  
G|-------------5-------------5--|--------------5----------------|  
D|-----5---5------7--5---5------|-7----5---5------7-------------|  
A|---7---7---7---------7---7----|----7---7---7------------------|  
E|------------------------------|-------------------------------|  

verse 1  
   You   can  watch your  mo-   vies  in    3-    D     It's  so strange  
e|------------------------------------------------------------------------------|  
B|------------------------------------7-----------9-----------9\----------------|  
G|------------6-----------9-----6-----------9----------------------/6-----------|  
D|-9-----7----------7-----------------------------------------------------------|  
A|------------------------------------------------------------------------------|  
E|------------------------------------------------------------------------------|  

Chorus  
With cellophane               cellophane, cellophane, cellophane,    oh  
e|------------|          e|------------------------------------------------|  
B|------------|          B|------------------------------------------------|  
G|-7p6--------| 4x, then G|------------------------------------------------|  
D|-----9-9----|          D|-9--9-7------7--7-6------6--6-------------------|  
A|------------|          A|------------------------------9---------7-------|  
E|------------|          E|------------------------------------------------|  

MAIN RIFF  

HARMONICA SOLO (in B)  

verse 2  
   You   can  co-   lour  ev-  'ry-   thing you  see          It's so strange  
e|-----------------------------------------------------------------------------------|  
B|------------------------------------7-----------9-----------9\---------------------|  
G|------------6-----------9-----6-----------9----------------------/6--7p6h7p6-------|  
D|-9-----7----------7----------------------------------------------------------------|  
A|-----------------------------------------------------------------------------------|  
E|-----------------------------------------------------------------------------------|  

Chorus  
With cellophane               cellophane, cellophane, cellophane,    oh  
e|------------|          e|------------------------------------------------|  
B|------------|          B|------------------------------------------------|  
G|-7p6--------| 4x, then G|------------------------------------------------|  
D|-----9-9----|          D|-9--9-7------7--7-6------6--6-------------------|  
A|------------|          A|------------------------------9---------7-------|  
E|------------|          E|------------------------------------------------|  

MAIN RIFF  

INTERLUDE (shouting)  

verse 3 (same as verse 1)  
   You   can  watch your  mo-   vies  in    3-    D      It's so strange  
e|------------------------------------------------------------------------------|  
B|------------------------------------7-----------9-----------9\----------------|  
G|------------6-----------9-----6-----------9----------------------/6-----------|  
D|-9-----7----------7-----------------------------------------------------------|  
A|------------------------------------------------------------------------------|  
E|------------------------------------------------------------------------------|  

Chorus  
With cellophane               cellophane, cellophane, cellophane,    oh  
e|------------|          e|------------------------------------------------|  
B|------------|          B|------------------------------------------------|  
G|-7p6--------| 4x, then G|------------------------------------------------|  
D|-----9-9----|          D|-9--9-7------7--7-6------6--6-------------------|  
A|------------|          A|------------------------------9---------7-------|  
E|------------|          E|------------------------------------------------|  

MAIN RIFF  

INTERLUDE (shouting and harmonica solo)  

(guitar part half way through)  
e|---------------------------------|  
B|---------------------------------|  
G|-7---9---7---9---7---9---7---9---| 2x  
D|---------------------------------|  
A|---------------------------------|  
E|---------------------------------|  

OUTRO (bass)  
G|-----------------------------|          G|----------------------------|  
D|-------------4-------------2-| 9x, then D|-------------4-2-2-2-2--0---|  
A|-0h2--2-2--2---0h2--2-2--2---|          A|-0h2--2-2--2----------------|  
E|-----------------------------|          E|----------------------------|  
share this page

See Also: