E-Chords
King Gizzard And The Lizard Wizard

roll up this ad to continue

Intro: 
e|----------------------------------------------------------------| 
B|----------------------------------------------------------------| 
G|----------------------------------------------------------------| x2 
D|----------------------------------------------------------------| 
A|----------------------------------------------------------------| 
E|-2--2-2-2-2-2-2-2-2-2-2-2-2-2-2-/9--9-9-9-9-9-9-/7--7-7-7-7-7-7-| 


Pre-Verse: 
Guitar 1: 
e|-----------------------------------------------------------------| 
B|-----------------------------------------------------------------| 
G|---------------------------------6-6-6-6-6-6-6-6-4-4-4-4-4-4-4-4-| 
D|-4-4-4-4-4-4-4-4-4-4-4-4-4-4-4-4-6-6-6-6-6-6-6-6-4-4-4-4-4-4-4-4-| 
A|-4-4-4-4-4-4-4-4-4-4-4-4-4-4-4-4-4-4-4-4-4-4-4-4-2-2-2-2-2-2-2-2-| 
E|-2-2-2-2-2-2-2-2-2-2-2-2-2-2-2-2---------------------------------| 

e|-0---0---0---0---0---0---0---0---0---0---0---0------------------------------///----| 
B|-2---2---2---2---2---2---2---2---2---2---2---2------------------------------///----| 
G|-4b6-4b6-4b6-4b6-4b6-4b6-4b6-4b6-4b6-4b6-4b6-4b6----6-6-6-6-6-6-6-6-4-4-4-4--------| 
D|----------------------------------------------------6-6-6-6-6-6-6-6-4-4-4-4--------| 
A|----------------------------------------------------4-4-4-4-4-4-4-4-2-2-2-2--------| 
E|-----------------------------------------------------------------------------------| 

Guitar 2: 
e|-2----------------------------------------------| 
B|-2-----------------------11.---9.-------9.--7.--| 
G|-3----------------10-10--10.--10.--8-8--8.--8.--| x2 
D|-4----------------11-11------------9-9----------| 
A|-4----------------------------------------------| 
E|-2----------------------------------------------| 


Verse: 
'Mum said I'm not okay 'cause I've been talking in my sleep, 
And Dad said I'm not okay 'cause I don't ever brush my teeth' 
Guitar 1: 
e|------------------------------------| 
B|------------------------------------| 
G|------------------6--------4--------| x2 
D|-4----------------6--------4--------| 
A|-4----------------4--------2--------| 
E|-2----------------------------------| 


Chorus: 
'Aye-oh-i, aye-oh-i go, aye-oh-i, aye-oh-i go, 
Aye-oh-i, aye-oh-i go, aye-oh-i, aye-aye-aye woo' 
Guitar 1: 
e|---------------------------------------------------------------| 
B|---------------------------------------------------------------| 
G|-------------------------------6-6-6-6--6-6-6--4-4-4-4--4-4-4--| 
D|-4--4-4-4--4-4-4-4-4-4--4-4-4--6-6-6-6--6-6-6--4-4-4-4--4-4-4--| 
A|-4--4-4-4--4-4-4-4-4-4--4-4-4--4-4-4-4--4-4-4--2-2-2-2--2-2-2--| 
E|-2--2-0-2--2-0-2-2-0-2--2-2-2----------------------------------| 

e|---------------------------------------------------------------------------------| 
B|---------------------------------------------------------------------------------| 
G|-11-11-11-11-11-11-11-11-11-11-11-11-11-11-11-11-6-6-6-6-6-6-6-6-4-4-4-4-4-4-4-4-| 
D|-11-11-11-11-11-11-11-11-11-11-11-11-11-11-11-11-6-6-6-6-6-6-6-6-4-4-4-4-4-4-4-4-| 
A|--9--9--9--9--9--9--9--9--9--9--9--9--9--9--9--9-4-4-4-4-4-4-4-4-2-2-2-2-2-2-2-2-| 
E|---------------------------------------------------------------------------------| 


Riff: 
Guitar 1: 
e|----------------------------------------------------------------| 
B|-------0------2------0---------------------9---------------7----| 
G|---3------3------3------3-------10----11.----10----8---9.----8--| 
D|-4---4------4------4------4-/11----11------------9---9----------| 
A|----------------------------------------------------------------| 
E|----------------------------------------------------------------| 

e|------------------------------------------------------------///----| 
B|-------0--------------------------------9---9--9--9--7-7-7--///----| 
G|---3------3----------------------10----10--10-10-10--8-8-8---------| 
D|-4---4-------2--2-2-2-2---2--/11----11-----11-11-11--9-9-9---------| 
A|------------------------4------------------------------------------| 
E|-------------------------------------------------------------------| 

Guitar 2: 
e|-2----------------4--------2--------| 
B|-2----------------6--------4--------| 
G|-3----------------6--------4--------| x2 
D|-4----------------6--------4--------| 
A|-4----------------4--------2--------| 
E|-2----------------------------------| 


Verse: 
'And Mum said I'm not okay 'cause I've been talking in my sleep, 
And Dad said I'm not okay because I never brush my teeth' 
Guitar 1: 
e|------------------------------------| 
B|------------------------------------| 
G|------------------6--------4--------| x2 
D|-4----------------6--------4--------| 
A|-4----------------4--------2--------| 
E|-2----------------------------------| 


Chorus: 
'Aye-oh-i, aye-oh-i go, aye-oh-i, aye-oh-i go, 
Aye-oh-i, aye-oh-i go, aye-oh-i, aye-aye-aye-aye' 
Guitar 1: 
e|------------------------------------| 
B|------------------------------------| 
G|------------------6--------4--------| x2 
D|-4----------------6--------4--------| 
A|-4----------------4--------2--------| 
E|-2----------------------------------| 


Bridge: 
'Aye-aye-aye-aye, aye-aye-aye-aye woo' 
Guitar 1: 
e|---------------------------------------------------------------| 
B|---------------------------------------------------------------| 
G|-------------------------------6-6-6-6--6-6-6--4-4-4-4--4-4-4--| 
D|-4--4-4-4--4-4-4-4-4-4--4-4-4--6-6-6-6--6-6-6--4-4-4-4--4-4-4--| 
A|-4--4-4-4--4-4-4-4-4-4--4-4-4--4-4-4-4--4-4-4--2-2-2-2--2-2-2--| 
E|-2--2-0-2--2-0-2-2-0-2--2-2-2----------------------------------| 

e|-0---0---0---0---0---0---0---0---0---0---0---0-----------------------------------------| 
B|-2---2---2---2---2---2---2---2---2---2---2---2-----------------------------------------| 
G|-4b6-4b6-4b6-4b6-4b6-4b6-4b6-4b6-4b6-4b6-4b6-4b6-------6-6-6-6-6-6-6-6-4-4-4-4-4-4-4-4-| 
D|-------------------------------------------------------6-6-6-6-6-6-6-6-4-4-4-4-4-4-4-4-| 
A|-------------------------------------------------------4-4-4-4-4-4-4-4-2-2-2-2-2-2-2-2-| 
E|--------------------------------------------------\\\\---------------------------------| 

Guitar 2: 
e|-2----------------------------------------------| 
B|-2-----------------------11.---9.-------9.--7.--| 
G|-3----------------10-10--10.--10.--8-8--8.--8.--| x2 
D|-4----------------11-11------------9-9----------| 
A|-4----------------------------------------------| 
E|-2----------------------------------------------| 


Chorus: 
'Aye-oh-i, aye-oh-i go, aye-oh-i, aye-oh-i go, 
Aye-oh-i, aye-oh-i go, aye-oh-i, aye-aye-aye-aye-aye' 
Guitar 1: 
e|------------------------------------------------------------------| 
B|------------------------------------------------------------------| 
G|-------------------------------6-6-6-6--6-6-6--4-4-4-4--11-11-11--| 
D|-4--4-4-4--4-4-4-4-4-4--4-4-4--6-6-6-6--6-6-6--4-4-4-4--11-11-11--| 
A|-4--4-4-4--4-4-4-4-4-4--4-4-4--4-4-4-4--4-4-4--2-2-2-2---9--9--9--| 
E|-2--2-0-2--2-0-2-2-0-2--2-2-2-------------------------------------| 

e|---------------------------------------------------------------------------------| 
B|---------------------------------------------------------------------------------| 
G|-11-11-11-11-11-11-11-11-11-11-11-11-11-11-11-11-6-6-6-6-6-6-6-6-4-4-4-4-4-4-4-4-| 
D|-11-11-11-11-11-11-11-11-11-11-11-11-11-11-11-11-6-6-6-6-6-6-6-6-4-4-4-4-4-4-4-4-| 
A|--9--9--9--9--9--9--9--9--9--9--9--9--9--9--9--9-4-4-4-4-4-4-4-4-2-2-2-2-2-2-2-2-| 
E|---------------------------------------------------------------------------------| 

Guitar 2: 
e|-2----------------------------------------------| 
B|-2-----------------------11.---9.-------9.--7.--| 
G|-3----------------10-10--10.--10.--8-8--8.--8.--| x2 
D|-4----------------11-11------------9-9----------| 
A|-4----------------------------------------------| 
E|-2----------------------------------------------| 


Outro: 
Guitar 1: 
e|----------------------------------------------------------------| 
B|-------0------2------0---------------------9---------------7----| 
G|---3------3------3------3-------10----11.----10----8---9.----8--| 
D|-4---4------4------4------4-/11----11------------9---9----------| 
A|----------------------------------------------------------------| 
E|----------------------------------------------------------------| 

e|-------------------------------------------------------------0-------------| 
B|-------0--------------------------------9---9--9.---7.--7--7-0-------------| 
G|---3------3----------------------10----10--10-10.---8.--8--8-0-------------| 
D|-4---4-------2--2-2-2-2---2--/11----11-----11-11.---9.--9--9---2--4--------| 
A|------------------------4--------------------------------------2--4--------| 
E|---------------------------------------------------------------0--2--------| 


At the very, very end, the 
guitar does this one last time: 
Guitar 1: 
e|-0--------| 
B|-0--------| 
G|-0--------| 
D|------4.--| 
A|------4.--| 
E|------2.--| 



************************************ 

| /   slide up 
| \   slide down 
| h   hammer-on 
| p   pull-off 
| ~   vibrato 
| +   harmonic 
| x   Mute note 
| .   staccato 
| b   Bend 
| pb  Pre-bend 
| br  Bend release 
| pbr Pre-bend release 
| brb Bend release bend 

************************************     

 
share this page

See Also: