E-Chords
Kid Rock

Forever(Tabs)

Kid Rock

roll up this ad to continue

Key: D
Drop D Tunning 

Intro  (0:00)  with overdriven tone 
G----------------------------------------------------- 
D----------------------------------------------------- 
A----------------------------------------------------- 
D-2---------------0--2----------2--------0--2-----0~-- 

1st Verse  (0:11) 
G-------------------- 
D--------------------  X3 
A-------------------- 
D-2---------------0-- 

G---------------------- 
D---------------------- 
A---------------------- 
D-2----------------0~-- 

G-------------------- 
D-------------------- 
A-------------------- 
D-2---------------0-- 

G------------- 
D------------- 
A------------- 
D-2-------0~-- 

Chorus  (0:32, 1:34, 2:58) 
G-------------------- 
D--------------------  X3 
A-------------------- 
D-2---------------0-- 

G---------------------- 
D---------------------- 
A---------------------- 
D-2----------------0~-- 

G-------------------- 
D--------------------  X3 
A-------------------- 
D-2---------------0-- 

G---------------------- 
D---------------------- 
A---------------------- 
D-2----------------0~-- 

2nd Verse  (0:53) 
G----- 
D----- 
A----- 
D--2-- 

G----- 
D----- 
A----- 
D--2-- 

G----------------------------- 
D----------------------------- 
A----------------------------- 
D-2----------2----------0--2-- 

G----------------------------------------------------- 
D----------------------------------------------------- 
A----------------------------------------------------- 
D-2---------------0--2----------2--------0--2-----0~-- 

G-------------------- 
D--------------------  X3 
A-------------------- 
D-2---------------0-- 

G---------------------- 
D---------------------- 
A---------------------- 
D-2----------------0~-- 

Interlude  (1:55) 
G-------------------- 
D--------------------  X3 
A-------------------- 
D-2---------------0-- 

G---------------------- 
D---------------------- 
A---------------------- 
D-2----------------0~-- 

Bridge  (2:16) 
G----------------------------------------------------- 
D----------------------------------------------------- 
A----------------------------------------------------- 
D-2---------------0--2----------2--------0--2-----0~-- 

3rd Verse  (2:27) 
G-------------------- 
D--------------------  X3 
A-------------------- 
D-2---------------0-- 

G---------------------- 
D---------------------- 
A---------------------- 
D-2----------------0~-- 

G----------------------------------------------------- 
D----------------------------------------------------- 
A----------------------------------------------------- 
D-2---------------0--2----------2--------0--2-----0~-- 

G-------------------- 
D--------------------  X3 
A-------------------- 
D-2---------------0-- 

G----- 
D----- 
A----- 
D--2-- 

Outro Chorus  (3:19) 
G-------------------- 
D--------------------  X3 
A-------------------- 
D-2---------------0-- 

G---------------------- 
D---------------------- 
A---------------------- 
D-2----------------0~-- 

G-------------------- 
D--------------------  X3 
A-------------------- 
D-2---------------0-- 

G---------------------- 
D---------------------- 
A---------------------- 
D-2----------------0~-- 

G-------------------- 
D--------------------  X2 
A-------------------- 
D-2---------------0-- 

G--------------- 
D--------------- 
A--------------- 
D-2----0~----2-- 
share this page

See Also: