E-Chords
KHIGH

Modern Time Religion(Tabs)

KHIGH

roll up this ad to continue

Intro / Bridge 



F|--------------------------------------------------| 

C|--------------------------------------------------| 

G|--------------7-----7-----7-----7-----7-----7-----| 

D|-3-5-3--0-0-0---0-0---0-0---0-0---0-0---0-0---0-0-| (3x) 



F|--------------------------------------------------| 

C|--------------------------------------------------| 

G|--------------7-----7-----7-----7-----7------5-6--| 

D|-3-5-3--0-0-0---0-0---0-0---0-0---0-0---0-0-------|  





Verse I 



F|------------------|------------------|------------------|--------------------- 

C|------------------|------------------|------------------|--------------------- 

G|------7-----------|------7-----------|------7-----------|------7-------------- 

D|-0--0---0--3--3-5-|-0--0---0--3--3-5-|-0--0---0--3--3-5-|-0--0---0--3--3------ 

                |_|                |_|                |_| 

'Waking up today'... 



F|------------------|------------------|------------------|--------------------- 

C|------------------|------------------|------------------|--------------------- 

G|------7-----------|------7-----------|------7-----------|------7-------------- 

D|-0--0---0--3--3-5-|-0--0---0--3--3-5-|-0--0---0--3--3-5-|-0--0---0--3--------- 

                |_|                |_|                |_| 



Bridge 



F|--------------------------------------------------| 

C|--------------------------------------------------| 

G|--------------7-----7-----7-----7-----7-----7-----| 

D|-3-5-3--0-0-0---0-0---0-0---0-0---0-0---0-0---0-0-| (3x) 



F|--------------------------------------------------| 

C|--------------------------------------------------| 

G|--------------7-----7-----7-----7-----7------5-6--| 

D|-3-5-3--0-0-0---0-0---0-0---0-0---0-0---0-0-------|  





Verse II 



F|------------------|------------------|------------------|--------------------- 

C|------------------|------------------|------------------|--------------------- 

G|------7-----------|------7-----------|------7-----------|------7-------------- 

D|-0--0---0--3--3-5-|-0--0---0--3--3-5-|-0--0---0--3--3-5-|-0--0---0--3--3------ 

                |_|                |_|                |_| 

'It happened once again'... 



F|------------------|------------------|------------------|--------------------- 

C|------------------|------------------|------------------|--------------------- 

G|------7-----------|------7-----------|------7-----------|------7-------------- 

D|-0--0---0--3--3-5-|-0--0---0--3--3-5-|-0--0---0--3--3-5-|-0--0---0--3--3------ 

                |_|                |_|                |_| 



F|-----------------------| 

C|-----------------------| 

G|-----------------------| 

D|-0--0-0-0-0-0--0-0-0---| 





Chorus I 



F|---------------------------------|---------------------------------|---------- 

C|---------------------------------|---------------------------------|---------- 

G|---------3-3(3x)---------0-0(3x)-|---------3-3(3x)---------0-0(3x)-|---------- 

D|-0-0(3x)---------3-3(3x)---------|-0-0(3x)---------3-3(3x)---------|---------- 



'Welcome to a place'... 



F|---------------------------------|---------------------------------|---------- 

C|---------------------------------|---------------------------------|---------- 

G|---------3-3(3x)---------0-0(3x)-|---------3-3(3x)-----------------|---------- 

D|-0-0(3x)---------3-3(3x)---------|-0-0(3x)---------3-3-3-3-5(13x)--|---------- 



'Modern Time Religion'... 





Bridge 



F|--------------------------------------------------| 

C|--------------------------------------------------| 

G|--------------7-----7-----7-----7-----7-----7-----| 

D|-3-5-3--0-0-0---0-0---0-0---0-0---0-0---0-0---0-0-| (3x) 



F|--------------------------------------------------| 

C|--------------------------------------------------| 

G|--------------7-----7-----7-----7-----7------5-6--| 

D|-3-5-3--0-0-0---0-0---0-0---0-0---0-0---0-0-------|  





Snare Drum Interlude 



F|------------------------| 

C|------------------------| 

G|--------------------5-6-| 

D|-0----0----0----0-------| 

   .    .    .    . 



Change 



F|--------------------------------------------------| 

C|--------------------------------------------------| 

G|-------------------------------------3-5----------| 

D|-0-0--0-0-0--0-0--0-0-0--0-0--0-0-0---------------| (3x) 



'Waking up today'... 



F|--------------------------------------------------| 

C|--------------------------------------------------| 

G|----------------------3-3--3-3-3--5-5--5-5-5------| 

D|-0-0--0-0-0--0-0--0-0-----------------------------| 





Change Choir 



F|-------------------------------------|---------------------------------------| 

C|-------------------------------------|---------------------------------------| 

G|---------3-3(6x)---------0-0(4x)-----|---------3-3(6x)---------0-0(4x)-------| 

D|-0-0(6x)---------3-3(6x)---------3-2-|-0-0(6x)---------3-3(6x)---------3-2---| 



'Oh oh'... 





Solo 



F|-------------------------------------|---------------------------------------| 

C|-------------------------------------|---------------------------------------| 

G|---------3-3(6x)---------0-0(4x)-----|---------3-3(6x)-----------------------| 

D|-0-0(6x)---------3-3(6x)---------3-2-|-0-0(6x)---------3-3(7x)-5(13x)--------| 





Bridge 



F|--------------------------------------------------| 

C|--------------------------------------------------| 

G|--------------7-----7-----7-----7-----7-----7-----| 

D|-3-5-3--0-0-0---0-0---0-0---0-0---0-0---0-0---0-0-| (3x) 



F|--------------------------------------------------| 

C|--------------------------------------------------| 

G|--------------7-----7-----7-----7-----7------5-6--| 

D|-3-5-3--0-0-0---0-0---0-0---0-0---0-0---0-0-------| 





Verse III 



F|------------------|------------------|------------------|--------------------- 

C|------------------|------------------|------------------|--------------------- 

G|------7-----------|------7-----------|------7-----------|------7-------------- 

D|-0--0---0--3--3-5-|-0--0---0--3--3-5-|-0--0---0--3--3-5-|-0--0---0--3--3------ 

                |_|                |_|                |_| 

'Everyone's got a thought'... 



F|------------------|------------------|------------------|--------------------- 

C|------------------|------------------|------------------|--------------------- 

G|------7-----------|------7-----------|------7-----------|------7-------------- 

D|-0--0---0--3--3-5-|-0--0---0--3--3-5-|-0--0---0--3--3-5-|-0--0---0--3--3------ 

                |_|                |_|                |_| 



F|-----------------------| 

C|-----------------------| 

G|----------7-7-7--------| 

D|-0-0-0-----------------| 





Chorus II 



F|---------------------------------|---------------------------------|---------- 

C|---------------------------------|---------------------------------|---------- 

G|---------3-3(3x)---------0-0(3x)-|---------3-3(3x)---------0-0(3x)-|---------- 

D|-0-0(3x)---------3-3(3x)---------|-0-0(3x)---------3-3(3x)---------|---------- 



'Welcome to a place'... 



F|---------------------------------|-------------------------------------------| 

C|---------------------------------|-------------------------------------------| 

G|---------3-3(3x)---------0-0(3x)-|---------3-3(3x)---------------------------| 

D|-0-0(3x)---------3-3(3x)---------|-0-0(3x)---------3-3-3-3-5(6x)--5-5-5------| 



'Modern Time Religion'... 



F|---------------------------------|---------------------------------|---------- 

C|---------------------------------|---------------------------------|---------- 

G|---------3-3(3x)---------0-0(3x)-|---------3-3(3x)---------0-0(3x)-|---------- 

D|-0-0(3x)---------3-3(3x)---------|-0-0(3x)---------3-3(3x)---------|---------- 



'Welcome to a place'... 



F|---------------------------------|---------------------------------|---------- 

C|---------------------------------|---------------------------------|---------- 

G|---------3-3(3x)---------0-0(3x)-|---------3-3(3x)-----------------|---------- 

D|-0-0(3x)---------3-3(3x)---------|-0-0(3x)---------3-3-3-3-5(13x)--|---------- 



'Modern Time Religion'... 





Outro 



F|--------------------------------------------------| 

C|--------------------------------------------------| 

G|--------------7-----7-----7-----7-----7-----7-----| 

D|-3-5-3--0-0-0---0-0---0-0---0-0---0-0---0-0---0-0-| (3x) 



F|----------------------------------------------------| 

C|----------------------------------------------------| 

G|--------------7-----7-----7-----7-----7------5-6----| 

D|-3-5-3--0-0-0---0-0---0-0---0-0---0-0---0-0-------0-| 
share this page

See Also: