E-Chords
KHIGH

Inner(Tabs)

KHIGH

roll up this ad to continue

Key: D
Tune bass in D and other strings accordingly. 

Intro 



F|--------------------------------|--------------------------------------------- 

C|--------------------------------|--------------------------------------------- 

G|--------------------------------|--------------------------------------------- 

D|-3-0-0-0-3-0-0-0-3-0-0--3--3-5--|-3--0-0-0-3-0-0-0-3-0-0--3--3-5-------------- 



F|---------------------------------|-------------------------------------------- 

C|---------------------------------|-------------------------------------------- 

G|---------------------------------|---------------------0-1-2-1-0-------------- 

D|-3--0-0-0-3-0-0-0-3-0-0--3--3-5--|-3--0-0-0-3-0-0-0-3------------3------------ 





Pre Verse I (2x) 



F|------------------------------|----------------------------------------------- 

C|------------------------------|----------------------------------------------- 

G|---7-----7-----7--0-1-2-1-0---|---7-----7-----7--0-1-2-1-0-------------------- 

D|-0---0-0---0-0--------------3-|-0---0-0---0-0--------------3--3-4-5-0-3-4-5--- 





Verse I (2x) to Verse coda 



F|------------------------------|----------------------------------------------- 

C|------------------------------|----------------------------------------------- 

G|---7-----7-----7--0-1-2-1-0---|---7-----7-----7--0-1-2-1-0-------------------- 

D|-0---0-0---0-0--------------3-|-0---0-0---0-0--------------3--3-4-5-0-3-4-5--- 



'Hey in town'... 



Verse coda 



F|-------------------------------|---------------------------------------------- 

C|-------------------------------|---------------------------------------------- 

G|-------------------------------|---------------------------------------------- 

D|-7-7(14x)--5-5(6x)--3-3(6x)----|---------------------------------------------- 



'Se-e-e-e-nse a se-e-e-nse'... 





Pre-Chorus I 



F|------------------------------------------------|----------------------------- 

C|------------------------------------------------|----------------------------- 

G|---------------------------3-3-3-2-2-2-0-0-0-0--|----------------------------- 

D|-0-0(15x)--3-3-3-2-2-2-0-0----------------------|----------------------------- 



'Inner vision'... 



F|------------------------------------------------------------------------------ 

C|------------------------------------------------------------------------------ 

G|-------------------------3-3-3-2-2-2-0-0-0-0----------------0-1-2-1-0--------- 

D|-0(16x)--3-3-3-2-2-2-0-0---------------------3-3-3-3-2(9x)------------3------- 





Pre Verse II 



F|------------------------------|----------------------------------------------- 

C|------------------------------|----------------------------------------------- 

G|---7-----7-----7--0-1-2-1-0---|---7-----7-----7--0-1-2-1-0-------------------- 

D|-0---0-0---0-0--------------3-|-0---0-0---0-0--------------3--3-4-5-0-3-4-5--- 





Verse II (2x) to Verse coda 



F|------------------------------|----------------------------------------------- 

C|------------------------------|----------------------------------------------- 

G|---7-----7-----7--0-1-2-1-0---|---7-----7-----7--0-1-2-1-0-------------------- 

D|-0---0-0---0-0--------------3-|-0---0-0---0-0--------------3--3-4-5-0-3-4-5--- 



'Marching out'... 



Verse coda 



F|-------------------------------|---------------------------------------------- 

C|-------------------------------|---------------------------------------------- 

G|-------------------------------|---------------------------------------------- 

D|-7-7(14x)--5-5(6x)--3-3(6x)----|---------------------------------------------- 



'Se-e-e-e-nse no se-e-e-nse'... 





Pre-Chorus II 



F|------------------------------------------------|----------------------------- 

C|------------------------------------------------|----------------------------- 

G|---------------------------3-3-3-2-2-2-0-0-0-0--|----------------------------- 

D|-0-0(15x)--3-3-3-2-2-2-0-0----------------------|----------------------------- 



'Inner vision'... 



F|------------------------------------------------------------------------------ 

C|------------------------------------------------------------------------------ 

G|-------------------------3-3-3-2-2-2-0-0-0-0---------------------------------- 

D|-0(16x)--3-3-3-2-2-2-0-0---------------------3-3-3-3-2(7x)--3-3(6x)--5-5(6x)-- 





Chorus (2x) 



F|---------------------------------------|-------------------------------------- 

C|---------------------------------------|-------------------------------------- 

G|-------------------------3-3(3x)-5-5-5-|-----------------3-3(6x)-5-5(3x)-2-2-2 

D|-0-0(6x)-3-3(6x)-5-5(6x)---------------|-0-0(6x)-3-3(6x)---------------------- 



'If every man'... 





Bridge (= Intro) 



F|--------------------------------|--------------------------------------------- 

C|--------------------------------|--------------------------------------------- 

G|--------------------------------|--------------------------------------------- 

D|-3-0-0-0-3-0-0-0-3-0-0--3--3-5--|-3--0-0-0-3-0-0-0-3-0-0--3--3-5-------------- 



F|---------------------------------|-------------------------------------------- 

C|---------------------------------|-------------------------------------------- 

G|---------------------------------|---------------------0-1-2-1-0-------------- 

D|-3--0-0-0-3-0-0-0-3-0-0--3--3-5--|-3--0-0-0-3-0-0-0-3------------3------------ 





Solo 



F|----------------|----------------|----------------|----------------|----------        

C|----------------|----------------|----------------|----------------|---------- 

G|----------------|----------------|----------------|----------------|----------        

D|-2-2(11)--3-3-3-|-2-2(11)--3-3-3-|-2-2(11)--3-3-3-|-2-2(11)--3-3-3-|---------- 



F|------------------------------------|----------------------------------------- 

C|------------------------------------|----------------------------------------- 

G|------------------------------------|----------------------------------------- 

D|-7-7(6x)--5-5(6x)--3-3(6x)--2-2(6x)-|-7-7(6x)--5-5(6x)--3-3(6x)-0--0-0-2--2-2- 



F|------------------------------------|----------------------------------------- 

C|------------------------------------|----------------------------------------- 

G|------------------------------------|----------------------------------------- 

D|-7-7(6x)--5-5(6x)--3-3(6x)--2-2(6x)-|-7-7(6x)--5-5(6x)--3-3(6x)-0--0-0-2-2-2-2 





Bridge (= Intro) 



F|--------------------------------|--------------------------------------------- 

C|--------------------------------|--------------------------------------------- 

G|--------------------------------|--------------------------------------------- 

D|-3-0-0-0-3-0-0-0-3-0-0--3--3-5--|-3--0-0-0-3-0-0-0-3-0-0--3--3-5-------------- 



F|---------------------------------|-------------------------------------------- 

C|---------------------------------|-------------------------------------------- 

G|---------------------------------|---------------------0-1-2-1-0-------------- 

D|-3--0-0-0-3-0-0-0-3-0-0--3--3-5--|-3--0-0-0-3-0-0-0-3------------3------------ 





Verse III (2x) to Verse coda 



F|------------------------------|----------------------------------------------- 

C|------------------------------|----------------------------------------------- 

G|---7-----7-----7--0-1-2-1-0---|---7-----7-----7--0-1-2-1-0-------------------- 

D|-0---0-0---0-0--------------3-|-0---0-0---0-0--------------3--3-4-5-0-3-4-5--- 



'In the streets'... 



Verse coda 



F|-------------------------------|---------------------------------------------- 

C|-------------------------------|---------------------------------------------- 

G|-------------------------------|---------------------------------------------- 

D|-7-7(14x)--5-5(6x)--3-3(6x)----|---------------------------------------------- 



'Se-e-e-e-nse a se-e-e-nse'... 





Pre-Chorus III 



F|------------------------------------------------|----------------------------- 

C|------------------------------------------------|----------------------------- 

G|---------------------------3-3-3-2-2-2-0-0-0-0--|----------------------------- 

D|-0-0(15x)--3-3-3-2-2-2-0-0----------------------|----------------------------- 



'Inner vision'... 



F|------------------------------------------------------------------------------ 

C|------------------------------------------------------------------------------ 

G|-------------------------3-3-3-2-2-2-0-0-0-0---------------------------------- 

D|-0(16x)--3-3-3-2-2-2-0-0---------------------3-3-3-3-2(7x)--3-3(6x)--5-5(6x)-- 





Chorus (2x) 



F|---------------------------------------|-------------------------------------- 

C|---------------------------------------|-------------------------------------- 

G|-------------------------3-3(3x)-5-5-5-|-----------------3-3(6x)-5-5(3x)-2-2-2 

D|-0-0(6x)-3-3(6x)-5-5(6x)---------------|-0-0(6x)-3-3(6x)---------------------- 



'If every man'... 





Outro 



F|--------------------------------|--------------------------------------------- 

C|--------------------------------|--------------------------------------------- 

G|--------------------------------|--------------------------------------------- 

D|-3-0-0-0-3-0-0-0-3-0-0--3--3-5--|-3--0-0-0-3-0-0-0-3-0-0--3--3-5-------------- 



F|---------------------------------|-------------------------------------------- 

C|---------------------------------|-------------------------------------------- 

G|---------------------------------|---------------------0-1-2-1-0-------------- 

D|-3--0-0-0-3-0-0-0-3-0-0--3--3-5--|-3--0-0-0-3-0-0-0-3------------3---0-------- 
share this page

See Also: